  0
SECTION
  2
HEADER
  9
$ACADVER
  1
AC1009
  9
$INSBASE
 10
0
 20
0
 30
0
  9
$EXTMIN
 10
0
 20
0
  9
$EXTMAX
 10
594
 20
420
  9
$LIMMIN
 10
0
 20
0
  9
$LIMMAX
 10
594
 20
420
  9
$LTSCALE
 40
2
  0
ENDSEC
  0
SECTION
  2
TABLES
  0
TABLE
  2
LTYPE
 70
     9
  0
LTYPE
  2
CONTINUOUS
 70
    64
  3
実線
 72
    65
 73
     0
 40
0.0
  0
LTYPE
  2
DASHED1
 70
    64
  3
--  --  --  --  --  --  --  --  
 72
    65
 73
     2
 40
2.5
 49
1.25
 49
-1.25
  0
LTYPE
  2
DASHED2
 70
    64
  3
----    ----    ----    ----    
 72
    65
 73
     2
 40
5.0
 49
2.5
 49
-2.5
  0
LTYPE
  2
DASHED3
 70
    64
  3
------  ------  ------  ------  
 72
    65
 73
     2
 40
5.0
 49
3.75
 49
-1.25
  0
LTYPE
  2
CENTER1
 70
    64
  3
----- - ----- - ----- - ----- - 
 72
    65
 73
     4
 40
10.0
 49
6.25
 49
-1.25
 49
1.25
 49
-1.25
  0
LTYPE
  2
CENTER2
 70
    64
  3
----------  --  ----------  --  
 72
    65
 73
     4
 40
20.0
 49
12.5
 49
-2.5
 49
2.5
 49
-2.5
  0
LTYPE
  2
PHANTOM1
 70
    64
  3
--- - - --- - - --- - - --- - - 
 72
    65
 73
     6
 40
10.0
 49
3.25
 49
-1.25
 49
1.25
 49
-1.25
 49
1.25
 49
-1.25
  0
LTYPE
  2
PHANTOM2
 70
    64
  3
--------  -  -  --------  -  -  
 72
    65
 73
     6
 40
20.0
 49
10.0
 49
-2.5
 49
1.25
 49
-2.5
 49
1.25
 49
-2.5
  0
LTYPE
  2
DOT
 70
    64
  3
-   -   -   -   -   -   -   -   
 72
    65
 73
     2
 40
2.5
 49
0.625
 49
-1.875
  0
LTYPE
  2
DUMMY
 70
    64
  3
ダミー
 72
    65
 73
     0
 40
0.0
  0
LTYPE
  2
RAND1
 70
    64
  3
ランダム線1
 72
    65
 73
     4
 40
10.0
 49
1.0
 49
-2.0
 49
3.0
 49
-4.0
  0
LTYPE
  2
RAND2
 70
    64
  3
ランダム線2
 72
    65
 73
     4
 40
14.0
 49
2.0
 49
-3.0
 49
4.0
 49
-5.0
  0
LTYPE
  2
RAND3
 70
    64
  3
ランダム線3
 72
    65
 73
     4
 40
18.0
 49
3.0
 49
-4.0
 49
5.0
 49
-6.0
  0
LTYPE
  2
RAND4
 70
    64
  3
ランダム線4
 72
    65
 73
     4
 40
22.0
 49
4.0
 49
-5.0
 49
6.0
 49
-7.0
  0
LTYPE
  2
RAND5
 70
    64
  3
ランダム線5
 72
    65
 73
     4
 40
26.0
 49
5.0
 49
-6.0
 49
7.0
 49
-8.0
  0
LTYPE
  2
LONG1
 70
    64
  3
----------  --  ----------  --  
 72
    65
 73
     4
 40
40.0
 49
32.5
 49
-2.5
 49
2.5
 49
-2.5
  0
LTYPE
  2
LONG2
 70
    64
  3
--------  -  -  --------  -  -  
 72
    65
 73
     6
 40
40.0
 49
30.0
 49
-2.5
 49
1.25
 49
-2.5
 49
1.25
 49
-2.5
  0
LTYPE
  2
LONG3
 70
    64
  3
+++++++++++++++..+++++++++++++++
 72
    65
 73
     2
 40
40.0
 49
37.5
 49
-2.5
  0
LTYPE
  2
LONG4
 70
    64
  3
+++++++++++++++..+++++++++++++++
 72
    65
 73
     2
 40
80.0
 49
75.0
 49
-5.0
  0
LTYPE
  2
LONG5
 70
    64
  3
----------  --  ----------  --  
 72
    65
 73
     4
 40
60.0
 49
37.5
 49
-7.5
 49
7.5
 49
-7.5
  0
LTYPE
  2
dashed
 70
   64
  3
-------   -------------   ------
 72
   65
 73
    2
 40
7.5
 49
6
 49
-1.5
  0
LTYPE
  2
dashed_spaced
 70
   64
  3
----        --------        ----
 72
   65
 73
    2
 40
12
 49
6
 49
-6
  0
LTYPE
  2
long_dashed_dotted
 70
   64
  3
------------- --- --------------
 72
   65
 73
    4
 40
15.25
 49
12
 49
-1.5
 49
0.25
 49
-1.5
  0
LTYPE
  2
long_dashed_double-dotted
 70
   64
  3
----------- --- --- ------------
 72
   65
 73
    6
 40
17
 49
12
 49
-1.5
 49
0.25
 49
-1.5
 49
0.25
 49
-1.5
  0
LTYPE
  2
long_dashed_triplicate-dotted
 70
   64
  3
--------- --- --- --- ----------
 72
   65
 73
    8
 40
18.75
 49
12
 49
-1.5
 49
0.25
 49
-1.5
 49
0.25
 49
-1.5
 49
0.25
 49
-1.5
  0
LTYPE
  2
dotted
 70
   64
  3
   -       -       -       -    
 72
   65
 73
    2
 40
1.75
 49
0.25
 49
-1.5
  0
LTYPE
  2
chain
 70
   64
  3
-------------- -- --------------
 72
   65
 73
    4
 40
18.5
 49
12
 49
-1.5
 49
3.5
 49
-1.5
  0
LTYPE
  2
chain_double_dash
 70
   64
  3
------------ -- -- -------------
 72
   65
 73
    6
 40
23.5
 49
12
 49
-1.5
 49
3.5
 49
-1.5
 49
3.5
 49
-1.5
  0
LTYPE
  2
dashed_dotted
 70
   64
  3
-----------     -     ----------
 72
   65
 73
    4
 40
9.25
 49
6
 49
-1.5
 49
0.25
 49
-1.5
  0
LTYPE
  2
double-dashed_dotted
 70
   64
  3
------   -----------   -   -----
 72
   65
 73
    6
 40
16.75
 49
6
 49
-1.5
 49
6
 49
-1.5
 49
0.25
 49
-1.5
  0
LTYPE
  2
dashed_double-dotted
 70
   64
  3
---------    -    -    ---------
 72
   65
 73
    6
 40
11
 49
6
 49
-1.5
 49
0.25
 49
-1.5
 49
0.25
 49
-1.5
  0
LTYPE
  2
double-dashed_double-dotted
 70
   64
  3
-----   ---------   -   -   ----
 72
   65
 73
    8
 40
18.5
 49
6
 49
-1.5
 49
6
 49
-1.5
 49
0.25
 49
-1.5
 49
0.25
 49
-1.5
  0
LTYPE
  2
dashed_triplicate-dotted
 70
   64
  3
-------    -    -    -    ------
 72
   65
 73
    8
 40
12.75
 49
6
 49
-1.5
 49
0.25
 49
-1.5
 49
0.25
 49
-1.5
 49
0.25
 49
-1.5
  0
LTYPE
  2
double-dashed_triplicate-dotted
 70
   64
  3
-----  ---------  -  -  -  -----
 72
   65
 73
   10
 40
20.25
 49
6
 49
-1.5
 49
6
 49
-1.5
 49
0.25
 49
-1.5
 49
0.25
 49
-1.5
 49
0.25
 49
-1.5
  0
LTYPE
  2
undefined
 70
   64
  3
--------------------------------
 72
   65
 73
    0
 40
0
  0
ENDTAB
  0
TABLE
  2
STYLE
  5
3
100
AcDbSymbolTable
 70
     1
  0
STYLE
  5
10
100
AcDbSymbolTableRecord
100
AcDbTextStyleTableRecord
  2
STANDARD
 70
     0
 40
0.0
 41
1.0
 50
0.0
 71
     0
 42
0.2
  3
txt
  4
bigfont.shx
  0
STYLE
  5
26
100
AcDbSymbolTableRecord
100
AcDbTextStyleTableRecord
  2
TATEGAKI
 70
    68
 40
0.0
 41
1.0
 50
0.0
 71
     0
 42
1.0
  3
txt
  4
bigfont.shx
  0
ENDTAB
  0
TABLE
  2
LAYER
 70
    2
  0
LAYER
  2
_0-0__
 70
   64
 62
    7
  6
CONTINUOUS
  0
LAYER
  2
ADD_LINE
 70
   64
 62
    7
  6
CONTINUOUS
  0
ENDTAB
  0
ENDSEC
  0
SECTION
  2
BLOCKS
  0
ENDSEC
  0
SECTION
  2
ENTITIES
  0
LINE
  8
_0-0__
  6
CONTINUOUS
 62
    7
 10
244.44999175200621
 20
127.50000257749815
 11
239.45000000000016
 21
127.50000257749815
  0
LINE
  8
_0-0__
  6
CONTINUOUS
 62
    7
 10
244.44999175200621
 20
129.50000298989784
 11
244.44999175200621
 21
127.50000257749815
  0
LINE
  8
_0-0__
  6
CONTINUOUS
 62
    7
 10
242.44999752560204
 20
129.50000298989784
 11
244.44999175200621
 21
129.50000298989784
  0
LINE
  8
_0-0__
  6
CONTINUOUS
 62
    7
 10
242.38175362251923
 20
129.50233511022617
 11
242.44999752560204
 21
129.50000298989784
  0
LINE
  8
_0-0__
  6
CONTINUOUS
 62
    7
 10
242.31383139120589
 20
129.50931291322451
 11
242.38175362251923
 21
129.50233511022617
  0
LINE
  8
_0-0__
  6
CONTINUOUS
 62
    7
 10
242.24654013144027
 20
129.52091784090607
 11
242.31383139120589
 21
129.50931291322451
  0
LINE
  8
_0-0__
  6
CONTINUOUS
 62
    7
 10
242.18020151499184
 20
129.53708184731971
 11
242.24654013144027
 21
129.52091784090607
  0
LINE
  8
_0-0__
  6
CONTINUOUS
 62
    7
 10
242.11511246964767
 20
129.55774307250977
 11
242.18020151499184
 21
129.53708184731971
  0
LINE
  8
_0-0__
  6
CONTINUOUS
 62
    7
 10
242.05159466717714
 20
129.58279016855596
 11
242.11511246964767
 21
129.55774307250977
  0
LINE
  8
_0-0__
  6
CONTINUOUS
 62
    7
 10
241.98993266337652
 20
129.61211797353383
 11
242.05159466717714
 21
129.58279016855596
  0
LINE
  8
_0-0__
  6
CONTINUOUS
 62
    7
 10
241.93041101404162
 20
129.64558420954523
 11
241.98993266337652
 21
129.61211797353383
  0
LINE
  8
_0-0__
  6
CONTINUOUS
 62
    7
 10
241.87331427496849
 20
129.68303422670107
 11
241.93041101404162
 21
129.64558420954523
  0
LINE
  8
_0-0__
  6
CONTINUOUS
 62
    7
 10
241.81891462996225
 20
129.72428863112987
 11
241.87331427496849
 21
129.68303422670107
  0
LINE
  8
_0-0__
  6
CONTINUOUS
 62
    7
 10
241.76744714685412
 20
129.76916802896034
 11
241.81891462996225
 21
129.72428863112987
  0
LINE
  8
_0-0__
  6
CONTINUOUS
 62
    7
 10
241.71915926546683
 20
129.817449724352
 11
241.76744714685412
 21
129.76916802896034
  0
LINE
  8
_0-0__
  6
CONTINUOUS
 62
    7
 10
241.67428605363204
 20
129.86891720746013
 11
241.71915926546683
 21
129.817449724352
  0
LINE
  8
_0-0__
  6
CONTINUOUS
 62
    7
 10
241.63302546320756
 20
129.923323038462
 11
241.67428605363204
 21
129.86891720746013
  0
LINE
  8
_0-0__
  6
CONTINUOUS
 62
    7
 10
241.59557544605173
 20
129.98041977753508
 11
241.63302546320756
 21
129.923323038462
  0
LINE
  8
_0-0__
  6
CONTINUOUS
 62
    7
 10
241.56210921004038
 20
130.0399352408744
 11
241.59557544605173
 21
129.98041977753508
  0
LINE
  8
_0-0__
  6
CONTINUOUS
 62
    7
 10
241.53278759105808
 20
130.10160343067065
 11
241.56210921004038
 21
130.0399352408744
  0
LINE
  8
_0-0__
  6
CONTINUOUS
 62
    7
 10
241.5077343090162
 20
130.16512123314106
 11
241.53278759105808
 21
130.10160343067065
  0
LINE
  8
_0-0__
  6
CONTINUOUS
 62
    7
 10
241.48708545581735
 20
130.23020409248971
 11
241.5077343090162
 21
130.16512123314106
  0
LINE
  8
_0-0__
  6
CONTINUOUS
 62
    7
 10
241.47091526340819
 20
130.29654270893815
 11
241.48708545581735
 21
130.23020409248971
  0
LINE
  8
_0-0__
  6
CONTINUOUS
 62
    7
 10
241.45931033572663
 20
130.36383396870377
 11
241.47091526340819
 21
130.29654270893815
  0
LINE
  8
_0-0__
  6
CONTINUOUS
 62
    7
 10
241.45233253272829
 20
130.43175620001716
 11
241.45931033572663
 21
130.36383396870377
  0
LINE
  8
_0-0__
  6
CONTINUOUS
 62
    7
 10
241.44999422640433
 20
130.50000010309992
 11
241.45233253272829
 21
130.43175620001716
  0
LINE
  8
_0-0__
  6
CONTINUOUS
 62
    7
 10
241.44999422640433
 20
141.49999927830049
 11
241.44999422640433
 21
130.50000010309992
  0
LINE
  8
_0-0__
  6
CONTINUOUS
 62
    7
 10
241.45213458087017
 20
141.56540380941851
 11
241.44999422640433
 21
141.49999927830049
  0
LINE
  8
_0-0__
  6
CONTINUOUS
 62
    7
 10
241.45855564426756
 20
141.63052997073612
 11
241.45213458087017
 21
141.56540380941851
  0
LINE
  8
_0-0__
  6
CONTINUOUS
 62
    7
 10
241.46920792863204
 20
141.69509320645716
 11
241.45855564426756
 21
141.63052997073612
  0
LINE
  8
_0-0__
  6
CONTINUOUS
 62
    7
 10
241.4840666899812
 20
141.75882133277685
 11
241.46920792863204
 21
141.69509320645716
  0
LINE
  8
_0-0__
  6
CONTINUOUS
 62
    7
 10
241.5030576963685
 20
141.82144216589023
 11
241.4840666899812
 21
141.75882133277685
  0
LINE
  8
_0-0__
  6
CONTINUOUS
 62
    7
 10
241.52611908783808
 20
141.88268352199242
 11
241.5030576963685
 21
141.82144216589023
  0
LINE
  8
_0-0__
  6
CONTINUOUS
 62
    7
 10
241.55311477248756
 20
141.94229177526523
 11
241.52611908783808
 21
141.88268352199242
  0
LINE
  8
_0-0__
  6
CONTINUOUS
 62
    7
 10
241.58397051837017
 20
142.00000092789929
 11
241.55311477248756
 21
141.94229177526523
  0
LINE
  8
_0-0__
  6
CONTINUOUS
 62
    7
 10
241.61852548960121
 20
142.05557591206315
 11
241.58397051837017
 21
142.00000092789929
  0
LINE
  8
_0-0__
  6
CONTINUOUS
 62
    7
 10
241.65664359427808
 20
142.10876310193862
 11
241.61852548960121
 21
142.05557591206315
  0
LINE
  8
_0-0__
  6
CONTINUOUS
 62
    7
 10
241.69815162452517
 20
142.15935217367633
 11
241.65664359427808
 21
142.10876310193862
  0
LINE
  8
_0-0__
  6
CONTINUOUS
 62
    7
 10
241.74288874445756
 20
142.20710805944492
 11
241.69815162452517
 21
142.15935217367633
  0
LINE
  8
_0-0__
  6
CONTINUOUS
 62
    7
 10
241.79064463022621
 20
142.25184517937737
 11
241.74288874445756
 21
142.20710805944492
  0
LINE
  8
_0-0__
  6
CONTINUOUS
 62
    7
 10
241.84123370196392
 20
142.29335939561997
 11
241.79064463022621
 21
142.25184517937737
  0
LINE
  8
_0-0__
  6
CONTINUOUS
 62
    7
 10
241.89442089183933
 20
142.33147131430133
 11
241.84123370196392
 21
142.29335939561997
  0
LINE
  8
_0-0__
  6
CONTINUOUS
 62
    7
 10
241.94999587600319
 20
142.36602628553237
 11
241.89442089183933
 21
142.33147131430133
  0
LINE
  8
_0-0__
  6
CONTINUOUS
 62
    7
 10
242.00771121463288
 20
142.3968758454194
 11
241.94999587600319
 21
142.36602628553237
  0
LINE
  8
_0-0__
  6
CONTINUOUS
 62
    7
 10
242.06730709591454
 20
142.42388390206003
 11
242.00771121463288
 21
142.3968758454194
  0
LINE
  8
_0-0__
  6
CONTINUOUS
 62
    7
 10
242.12856082400788
 20
142.44693292153846
 11
242.06730709591454
 21
142.42388390206003
  0
LINE
  8
_0-0__
  6
CONTINUOUS
 62
    7
 10
242.19117547112558
 20
142.46593011392127
 11
242.12856082400788
 21
142.44693292153846
  0
LINE
  8
_0-0__
  6
CONTINUOUS
 62
    7
 10
242.25490359744538
 20
142.48078887527049
 11
242.19117547112558
 21
142.46593011392127
  0
LINE
  8
_0-0__
  6
CONTINUOUS
 62
    7
 10
242.31947301916193
 20
142.49144734563055
 11
242.25490359744538
 21
142.48078887527049
  0
LINE
  8
_0-0__
  6
CONTINUOUS
 62
    7
 10
242.38458680848839
 20
142.49786222303237
 11
242.31947301916193
 21
142.49144734563055
  0
LINE
  8
_0-0__
  6
CONTINUOUS
 62
    7
 10
242.44999752560204
 20
142.50000257749815
 11
242.38458680848839
 21
142.49786222303237
  0
LINE
  8
_0-0__
  6
CONTINUOUS
 62
    7
 10
253.44999670080256
 20
142.50000257749815
 11
242.44999752560204
 21
142.50000257749815
  0
LINE
  8
_0-0__
  6
CONTINUOUS
 62
    7
 10
253.44999670080256
 20
150.70000983573294
 11
253.44999670080256
 21
142.50000257749815
  0
LINE
  8
_0-0__
  6
CONTINUOUS
 62
    7
 10
247.45000164959902
 20
150.70000983573294
 11
253.44999670080256
 21
150.70000983573294
  0
LINE
  8
_0-0__
  6
CONTINUOUS
 62
    7
 10
251.44999010240724
 20
148.70000942333326
 11
247.45000164959902
 21
148.70000942333326
  0
LINE
  8
_0-0__
  6
CONTINUOUS
 62
    7
 10
251.44999010240724
 20
144.50000298989784
 11
251.44999010240724
 21
148.70000942333326
  0
LINE
  8
_0-0__
  6
CONTINUOUS
 62
    7
 10
241.94999587600319
 20
144.50000298989784
 11
251.44999010240724
 21
144.50000298989784
  0
LINE
  8
_0-0__
  6
CONTINUOUS
 62
    7
 10
241.91729670344193
 20
144.50107316713076
 11
241.94999587600319
 21
144.50000298989784
  0
LINE
  8
_0-0__
  6
CONTINUOUS
 62
    7
 10
241.88473362278319
 20
144.50427751283388
 11
241.91729670344193
 21
144.50107316713076
  0
LINE
  8
_0-0__
  6
CONTINUOUS
 62
    7
 10
241.85245509792037
 20
144.50960984101164
 11
241.88473362278319
 21
144.50427751283388
  0
LINE
  8
_0-0__
  6
CONTINUOUS
 62
    7
 10
241.82058484876495
 20
144.51703922168628
 11
241.85245509792037
 21
144.50960984101164
  0
LINE
  8
_0-0__
  6
CONTINUOUS
 62
    7
 10
241.78927133921059
 20
144.52653472487987
 11
241.82058484876495
 21
144.51703922168628
  0
LINE
  8
_0-0__
  6
CONTINUOUS
 62
    7
 10
241.75865066115944
 20
144.53805923461914
 11
241.78927133921059
 21
144.52653472487987
  0
LINE
  8
_0-0__
  6
CONTINUOUS
 62
    7
 10
241.72884653452309
 20
144.55156326293945
 11
241.75865066115944
 21
144.53805923461914
  0
LINE
  8
_0-0__
  6
CONTINUOUS
 62
    7
 10
241.6999950512037
 20
144.56698494988518
 11
241.72884653452309
 21
144.55156326293945
  0
LINE
  8
_0-0__
  6
CONTINUOUS
 62
    7
 10
241.67220755912183
 20
144.58426243550065
 11
241.6999950512037
 21
144.56698494988518
  0
LINE
  8
_0-0__
  6
CONTINUOUS
 62
    7
 10
241.64560777818849
 20
144.60332148783914
 11
241.67220755912183
 21
144.58426243550065
  0
LINE
  8
_0-0__
  6
CONTINUOUS
 62
    7
 10
241.62031942831527
 20
144.62408168895826
 11
241.64560777818849
 21
144.60332148783914
  0
LINE
  8
_0-0__
  6
CONTINUOUS
 62
    7
 10
241.596441485431
 20
144.64644406292888
 11
241.62031942831527
 21
144.62408168895826
  0
LINE
  8
_0-0__
  6
CONTINUOUS
 62
    7
 10
241.57407292546475
 20
144.67032819180872
 11
241.596441485431
 21
144.64644406292888
  0
LINE
  8
_0-0__
  6
CONTINUOUS
 62
    7
 10
241.55331272434569
 20
144.69561654168206
 11
241.57407292546475
 21
144.67032819180872
  0
LINE
  8
_0-0__
  6
CONTINUOUS
 62
    7
 10
241.53425985800277
 20
144.72221632261534
 11
241.55331272434569
 21
144.69561654168206
  0
LINE
  8
_0-0__
  6
CONTINUOUS
 62
    7
 10
241.51697618639162
 20
144.74999762870169
 11
241.53425985800277
 21
144.72221632261534
  0
LINE
  8
_0-0__
  6
CONTINUOUS
 62
    7
 10
241.50156068544152
 20
144.77885529801648
 11
241.51697618639162
 21
144.74999762870169
  0
LINE
  8
_0-0__
  6
CONTINUOUS
 62
    7
 10
241.48805047112558
 20
144.80865942465289
 11
241.50156068544152
 21
144.77885529801648
  0
LINE
  8
_0-0__
  6
CONTINUOUS
 62
    7
 10
241.47653214738204
 20
144.83928010270398
 11
241.48805047112558
 21
144.80865942465289
  0
LINE
  8
_0-0__
  6
CONTINUOUS
 62
    7
 10
241.46703045819277
 20
144.87058742626294
 11
241.47653214738204
 21
144.83928010270398
  0
LINE
  8
_0-0__
  6
CONTINUOUS
 62
    7
 10
241.4596072635137
 20
144.9024576754183
 11
241.46703045819277
 21
144.87058742626294
  0
LINE
  8
_0-0__
  6
CONTINUOUS
 62
    7
 10
241.454274935336
 20
144.93473620028107
 11
241.4596072635137
 21
144.9024576754183
  0
LINE
  8
_0-0__
  6
CONTINUOUS
 62
    7
 10
241.45107058963288
 20
144.96729928093987
 11
241.454274935336
 21
144.93473620028107
  0
LINE
  8
_0-0__
  6
CONTINUOUS
 62
    7
 10
241.44999422640433
 20
144.99999845350112
 11
241.45107058963288
 21
144.96729928093987
  0
LINE
  8
_0-0__
  6
CONTINUOUS
 62
    7
 10
241.44999422640433
 20
145.44230332245695
 11
241.44999422640433
 21
144.99999845350112
  0
LINE
  8
_0-0__
  6
CONTINUOUS
 62
    7
 10
241.44999422640433
 20
162.58465895781643
 11
241.44999422640433
 21
152.41534001118424
  0
LINE
  8
_0-0__
  6
CONTINUOUS
 62
    7
 10
241.44999422640433
 20
170.00000051549961
 11
241.44999422640433
 21
169.55770183253929
  0
LINE
  8
_0-0__
  6
CONTINUOUS
 62
    7
 10
241.45105821764162
 20
170.03270278105862
 11
241.44999422640433
 21
170.00000051549961
  0
LINE
  8
_0-0__
  6
CONTINUOUS
 62
    7
 10
241.454274935336
 20
170.06526586171748
 11
241.45105821764162
 21
170.03270278105862
  0
LINE
  8
_0-0__
  6
CONTINUOUS
 62
    7
 10
241.45959489152267
 20
170.09754747957794
 11
241.454274935336
 21
170.06526586171748
  0
LINE
  8
_0-0__
  6
CONTINUOUS
 62
    7
 10
241.46703045819277
 20
170.1294146357356
 11
241.45959489152267
 21
170.09754747957794
  0
LINE
  8
_0-0__
  6
CONTINUOUS
 62
    7
 10
241.47651977539078
 20
170.16072505229232
 11
241.46703045819277
 21
170.1294146357356
  0
LINE
  8
_0-0__
  6
CONTINUOUS
 62
    7
 10
241.48805047112558
 20
170.19134882334117
 11
241.47651977539078
 21
170.16072505229232
  0
LINE
  8
_0-0__
  6
CONTINUOUS
 62
    7
 10
241.50154831345037
 20
170.22115294997758
 11
241.48805047112558
 21
170.19134882334117
  0
LINE
  8
_0-0__
  6
CONTINUOUS
 62
    7
 10
241.51697618639162
 20
170.25000752629461
 11
241.50154831345037
 21
170.22115294997758
  0
LINE
  8
_0-0__
  6
CONTINUOUS
 62
    7
 10
241.53424748601162
 20
170.27779501837654
 11
241.51697618639162
 21
170.25000752629461
  0
LINE
  8
_0-0__
  6
CONTINUOUS
 62
    7
 10
241.55331272434569
 20
170.30439170631206
 11
241.53424748601162
 21
170.27779501837654
  0
LINE
  8
_0-0__
  6
CONTINUOUS
 62
    7
 10
241.5740605534736
 20
170.32968314918315
 11
241.55331272434569
 21
170.30439170631206
  0
LINE
  8
_0-0__
  6
CONTINUOUS
 62
    7
 10
241.59642911343985
 20
170.35356418506518
 11
241.5740605534736
 21
170.32968314918315
  0
LINE
  8
_0-0__
  6
CONTINUOUS
 62
    7
 10
241.62030705632412
 20
170.37593274503143
 11
241.59642911343985
 21
170.35356418506518
  0
LINE
  8
_0-0__
  6
CONTINUOUS
 62
    7
 10
241.64560777818849
 20
170.39668985315274
 11
241.62030705632412
 21
170.37593274503143
  0
LINE
  8
_0-0__
  6
CONTINUOUS
 62
    7
 10
241.67220755912183
 20
170.41574890549117
 11
241.64560777818849
 21
170.39668985315274
  0
LINE
  8
_0-0__
  6
CONTINUOUS
 62
    7
 10
241.69998267921267
 20
170.43302639110669
 11
241.67220755912183
 21
170.41574890549117
  0
LINE
  8
_0-0__
  6
CONTINUOUS
 62
    7
 10
241.72884653452309
 20
170.44844807805242
 11
241.69998267921267
 21
170.43302639110669
  0
LINE
  8
_0-0__
  6
CONTINUOUS
 62
    7
 10
241.75865066115944
 20
170.46195210637273
 11
241.72884653452309
 21
170.44844807805242
  0
LINE
  8
_0-0__
  6
CONTINUOUS
 62
    7
 10
241.78927133921059
 20
170.47347661611201
 11
241.75865066115944
 21
170.46195210637273
  0
LINE
  8
_0-0__
  6
CONTINUOUS
 62
    7
 10
241.82058484876495
 20
170.4829721193056
 11
241.78927133921059
 21
170.47347661611201
  0
LINE
  8
_0-0__
  6
CONTINUOUS
 62
    7
 10
241.85244272592934
 20
170.49039840698242
 11
241.82058484876495
 21
170.4829721193056
  0
LINE
  8
_0-0__
  6
CONTINUOUS
 62
    7
 10
241.88473362278319
 20
170.49572764216242
 11
241.85244272592934
 21
170.49039840698242
  0
LINE
  8
_0-0__
  6
CONTINUOUS
 62
    7
 10
241.91729670344193
 20
170.49893198786555
 11
241.88473362278319
 21
170.49572764216242
  0
LINE
  8
_0-0__
  6
CONTINUOUS
 62
    7
 10
241.94999587600319
 20
170.49999907210071
 11
241.91729670344193
 21
170.49893198786555
  0
LINE
  8
_0-0__
  6
CONTINUOUS
 62
    7
 10
251.44999010240724
 20
170.49999907210071
 11
241.94999587600319
 21
170.49999907210071
  0
LINE
  8
_0-0__
  6
CONTINUOUS
 62
    7
 10
251.44999010240724
 20
166.30001119665195
 11
251.44999010240724
 21
170.49999907210071
  0
LINE
  8
_0-0__
  6
CONTINUOUS
 62
    7
 10
247.45000164959902
 20
166.30001119665195
 11
251.44999010240724
 21
166.30001119665195
  0
LINE
  8
_0-0__
  6
CONTINUOUS
 62
    7
 10
253.44999670080256
 20
164.30001078425227
 11
247.45000164959902
 21
164.30001078425227
  0
LINE
  8
_0-0__
  6
CONTINUOUS
 62
    7
 10
253.44999670080256
 20
170.49999907210071
 11
253.44999670080256
 21
164.30001078425227
  0
LINE
  8
_0-0__
  6
CONTINUOUS
 62
    7
 10
277.4499954636035
 20
170.49999907210071
 11
253.44999670080256
 21
170.49999907210071
  0
LINE
  8
_0-0__
  6
CONTINUOUS
 62
    7
 10
277.4499954636035
 20
164.30001078425227
 11
277.4499954636035
 21
170.49999907210071
  0
LINE
  8
_0-0__
  6
CONTINUOUS
 62
    7
 10
279.44999587600319
 20
164.30001078425227
 11
277.4499954636035
 21
164.30001078425227
  0
LINE
  8
_0-0__
  6
CONTINUOUS
 62
    7
 10
279.44999587600319
 20
164.34819659671268
 11
279.44999587600319
 21
164.30001078425227
  0
LINE
  8
_0-0__
  6
CONTINUOUS
 62
    7
 10
279.44999587600319
 20
230.69998921574773
 11
279.44999587600319
 21
230.65180340328737
  0
LINE
  8
_0-0__
  6
CONTINUOUS
 62
    7
 10
277.4499954636035
 20
230.69998921574773
 11
279.44999587600319
 21
230.69998921574773
  0
LINE
  8
_0-0__
  6
CONTINUOUS
 62
    7
 10
277.4499954636035
 20
224.50000092789935
 11
277.4499954636035
 21
230.69998921574773
  0
LINE
  8
_0-0__
  6
CONTINUOUS
 62
    7
 10
253.44999670080256
 20
230.69998921574773
 11
253.44999670080256
 21
224.50000092789935
  0
LINE
  8
_0-0__
  6
CONTINUOUS
 62
    7
 10
247.45000164959902
 20
230.69998921574773
 11
253.44999670080256
 21
230.69998921574773
  0
LINE
  8
_0-0__
  6
CONTINUOUS
 62
    7
 10
251.44999010240724
 20
228.69999189634581
 11
247.45000164959902
 21
228.69999189634581
  0
LINE
  8
_0-0__
  6
CONTINUOUS
 62
    7
 10
251.44999010240724
 20
224.50000092789935
 11
251.44999010240724
 21
228.69999189634581
  0
LINE
  8
_0-0__
  6
CONTINUOUS
 62
    7
 10
241.94999587600319
 20
224.50000092789935
 11
251.44999010240724
 21
224.50000092789935
  0
LINE
  8
_0-0__
  6
CONTINUOUS
 62
    7
 10
241.91729670344193
 20
224.50106955863333
 11
241.94999587600319
 21
224.50000092789935
  0
LINE
  8
_0-0__
  6
CONTINUOUS
 62
    7
 10
241.88473362278319
 20
224.50427545083534
 11
241.91729670344193
 21
224.50106955863333
  0
LINE
  8
_0-0__
  6
CONTINUOUS
 62
    7
 10
241.85245509792037
 20
224.50960468601539
 11
241.88473362278319
 21
224.50427545083534
  0
LINE
  8
_0-0__
  6
CONTINUOUS
 62
    7
 10
241.82058484876495
 20
224.51703252019109
 11
241.85245509792037
 21
224.50960468601539
  0
LINE
  8
_0-0__
  6
CONTINUOUS
 62
    7
 10
241.78927133921059
 20
224.52652956988362
 11
241.82058484876495
 21
224.51703252019109
  0
LINE
  8
_0-0__
  6
CONTINUOUS
 62
    7
 10
241.75865066115944
 20
224.53805407962284
 11
241.78927133921059
 21
224.52652956988362
  0
LINE
  8
_0-0__
  6
CONTINUOUS
 62
    7
 10
241.72884653452309
 20
224.55155810794315
 11
241.75865066115944
 21
224.53805407962284
  0
LINE
  8
_0-0__
  6
CONTINUOUS
 62
    7
 10
241.6999950512037
 20
224.56698134138782
 11
241.72884653452309
 21
224.55155810794315
  0
LINE
  8
_0-0__
  6
CONTINUOUS
 62
    7
 10
241.67220755912183
 20
224.58425882700328
 11
241.6999950512037
 21
224.56698134138782
  0
LINE
  8
_0-0__
  6
CONTINUOUS
 62
    7
 10
241.64560777818849
 20
224.60331633284289
 11
241.67220755912183
 21
224.58425882700328
  0
LINE
  8
_0-0__
  6
CONTINUOUS
 62
    7
 10
241.62031942831527
 20
224.6240734409642
 11
241.64560777818849
 21
224.60331633284289
  0
LINE
  8
_0-0__
  6
CONTINUOUS
 62
    7
 10
241.596441485431
 20
224.64644045443146
 11
241.62031942831527
 21
224.6240734409642
  0
LINE
  8
_0-0__
  6
CONTINUOUS
 62
    7
 10
241.57407292546475
 20
224.6703214903136
 11
241.596441485431
 21
224.64644045443146
  0
LINE
  8
_0-0__
  6
CONTINUOUS
 62
    7
 10
241.55331272434569
 20
224.69561447968357
 11
241.57407292546475
 21
224.6703214903136
  0
LINE
  8
_0-0__
  6
CONTINUOUS
 62
    7
 10
241.53425985800277
 20
224.72220962112016
 11
241.55331272434569
 21
224.69561447968357
  0
LINE
  8
_0-0__
  6
CONTINUOUS
 62
    7
 10
241.51697618639162
 20
224.74999556670315
 11
241.53425985800277
 21
224.72220962112016
  0
LINE
  8
_0-0__
  6
CONTINUOUS
 62
    7
 10
241.50154831345037
 20
224.77885168951912
 11
241.51697618639162
 21
224.74999556670315
  0
LINE
  8
_0-0__
  6
CONTINUOUS
 62
    7
 10
241.48805047112558
 20
224.80865581615552
 11
241.50154831345037
 21
224.77885168951912
  0
LINE
  8
_0-0__
  6
CONTINUOUS
 62
    7
 10
241.47651977539078
 20
224.83927804070555
 11
241.48805047112558
 21
224.80865581615552
  0
LINE
  8
_0-0__
  6
CONTINUOUS
 62
    7
 10
241.46703045819277
 20
224.87058845726216
 11
241.47651977539078
 21
224.83927804070555
  0
LINE
  8
_0-0__
  6
CONTINUOUS
 62
    7
 10
241.45959489152267
 20
224.90245406692094
 11
241.46703045819277
 21
224.87058845726216
  0
LINE
  8
_0-0__
  6
CONTINUOUS
 62
    7
 10
241.454274935336
 20
224.93473568478151
 11
241.45959489152267
 21
224.90245406692094
  0
LINE
  8
_0-0__
  6
CONTINUOUS
 62
    7
 10
241.45107058963288
 20
224.96729876544026
 11
241.454274935336
 21
224.93473568478151
  0
LINE
  8
_0-0__
  6
CONTINUOUS
 62
    7
 10
241.44999422640433
 20
225.00000103099927
 11
241.45107058963288
 21
224.96729876544026
  0
LINE
  8
_0-0__
  6
CONTINUOUS
 62
    7
 10
241.44999422640433
 20
225.44229971395959
 11
241.44999422640433
 21
225.00000103099927
  0
LINE
  8
_0-0__
  6
CONTINUOUS
 62
    7
 10
241.44999422640433
 20
242.58465998881576
 11
241.44999422640433
 21
232.41534104218357
  0
LINE
  8
_0-0__
  6
CONTINUOUS
 62
    7
 10
241.44999422640433
 20
250.00000154649894
 11
241.44999422640433
 21
249.55769977054081
  0
LINE
  8
_0-0__
  6
CONTINUOUS
 62
    7
 10
241.45107058963288
 20
250.03270071906013
 11
241.44999422640433
 21
250.00000154649894
  0
LINE
  8
_0-0__
  6
CONTINUOUS
 62
    7
 10
241.454274935336
 20
250.06526379971893
 11
241.45107058963288
 21
250.03270071906013
  0
LINE
  8
_0-0__
  6
CONTINUOUS
 62
    7
 10
241.4596072635137
 20
250.09754541757945
 11
241.454274935336
 21
250.06526379971893
  0
LINE
  8
_0-0__
  6
CONTINUOUS
 62
    7
 10
241.46703045819277
 20
250.1294094807393
 11
241.4596072635137
 21
250.09754541757945
  0
LINE
  8
_0-0__
  6
CONTINUOUS
 62
    7
 10
241.47653214738204
 20
250.16071989729602
 11
241.46703045819277
 21
250.1294094807393
  0
LINE
  8
_0-0__
  6
CONTINUOUS
 62
    7
 10
241.48805047112558
 20
250.19134366834487
 11
241.47653214738204
 21
250.16071989729602
  0
LINE
  8
_0-0__
  6
CONTINUOUS
 62
    7
 10
241.50156068544152
 20
250.22114470198352
 11
241.48805047112558
 21
250.19134366834487
  0
LINE
  8
_0-0__
  6
CONTINUOUS
 62
    7
 10
241.51697618639162
 20
250.25000237129831
 11
241.50156068544152
 21
250.22114470198352
  0
LINE
  8
_0-0__
  6
CONTINUOUS
 62
    7
 10
241.53425985800277
 20
250.27778677038242
 11
241.51697618639162
 21
250.25000237129831
  0
LINE
  8
_0-0__
  6
CONTINUOUS
 62
    7
 10
241.55331272434569
 20
250.30438345831794
 11
241.53425985800277
 21
250.27778677038242
  0
LINE
  8
_0-0__
  6
CONTINUOUS
 62
    7
 10
241.57407292546475
 20
250.32967490118904
 11
241.55331272434569
 21
250.30438345831794
  0
LINE
  8
_0-0__
  6
CONTINUOUS
 62
    7
 10
241.596441485431
 20
250.35355593707112
 11
241.57407292546475
 21
250.32967490118904
  0
LINE
  8
_0-0__
  6
CONTINUOUS
 62
    7
 10
241.62031942831527
 20
250.37592140403956
 11
241.596441485431
 21
250.35355593707112
  0
LINE
  8
_0-0__
  6
CONTINUOUS
 62
    7
 10
241.64560777818849
 20
250.39667851216086
 11
241.62031942831527
 21
250.37592140403956
  0
LINE
  8
_0-0__
  6
CONTINUOUS
 62
    7
 10
241.67220755912183
 20
250.41573756449935
 11
241.64560777818849
 21
250.39667851216086
  0
LINE
  8
_0-0__
  6
CONTINUOUS
 62
    7
 10
241.6999950512037
 20
250.43301505011482
 11
241.67220755912183
 21
250.41573756449935
  0
LINE
  8
_0-0__
  6
CONTINUOUS
 62
    7
 10
241.72884653452309
 20
250.44843983005836
 11
241.6999950512037
 21
250.43301505011482
  0
LINE
  8
_0-0__
  6
CONTINUOUS
 62
    7
 10
241.75865066115944
 20
250.46194076538086
 11
241.72884653452309
 21
250.44843983005836
  0
LINE
  8
_0-0__
  6
CONTINUOUS
 62
    7
 10
241.78927133921059
 20
250.47346836811789
 11
241.75865066115944
 21
250.46194076538086
  0
LINE
  8
_0-0__
  6
CONTINUOUS
 62
    7
 10
241.82058484876495
 20
250.48296387131148
 11
241.78927133921059
 21
250.47346836811789
  0
LINE
  8
_0-0__
  6
CONTINUOUS
 62
    7
 10
241.85245509792037
 20
250.49039325198612
 11
241.82058484876495
 21
250.48296387131148
  0
LINE
  8
_0-0__
  6
CONTINUOUS
 62
    7
 10
241.88473362278319
 20
250.49572248716612
 11
241.85245509792037
 21
250.49039325198612
  0
LINE
  8
_0-0__
  6
CONTINUOUS
 62
    7
 10
241.91729670344193
 20
250.498929925867
 11
241.88473362278319
 21
250.49572248716612
  0
LINE
  8
_0-0__
  6
CONTINUOUS
 62
    7
 10
241.94999587600319
 20
250.50000010309992
 11
241.91729670344193
 21
250.498929925867
  0
LINE
  8
_0-0__
  6
CONTINUOUS
 62
    7
 10
251.44999010240724
 20
250.50000010309992
 11
241.94999587600319
 21
250.50000010309992
  0
LINE
  8
_0-0__
  6
CONTINUOUS
 62
    7
 10
251.44999010240724
 20
246.29999985566013
 11
251.44999010240724
 21
250.50000010309992
  0
LINE
  8
_0-0__
  6
CONTINUOUS
 62
    7
 10
247.45000164959902
 20
246.29999985566013
 11
251.44999010240724
 21
246.29999985566013
  0
LINE
  8
_0-0__
  6
CONTINUOUS
 62
    7
 10
253.44999670080256
 20
244.29999944326039
 11
247.45000164959902
 21
244.29999944326039
  0
LINE
  8
_0-0__
  6
CONTINUOUS
 62
    7
 10
253.44999670080256
 20
252.50000051549961
 11
253.44999670080256
 21
244.29999944326039
  0
LINE
  8
_0-0__
  6
CONTINUOUS
 62
    7
 10
241.45233253272829
 20
264.56824070698508
 11
241.44999422640433
 21
264.50000298989784
  0
LINE
  8
_0-0__
  6
CONTINUOUS
 62
    7
 10
241.45931033572663
 20
264.63616912429399
 11
241.45233253272829
 21
264.56824070698508
  0
LINE
  8
_0-0__
  6
CONTINUOUS
 62
    7
 10
241.47091526340819
 20
264.70345419806404
 11
241.45931033572663
 21
264.63616912429399
  0
LINE
  8
_0-0__
  6
CONTINUOUS
 62
    7
 10
241.48708545581735
 20
264.7697990005081
 11
241.47091526340819
 21
264.70345419806404
  0
LINE
  8
_0-0__
  6
CONTINUOUS
 62
    7
 10
241.5077343090162
 20
264.83488185985669
 11
241.48708545581735
 21
264.7697990005081
  0
LINE
  8
_0-0__
  6
CONTINUOUS
 62
    7
 10
241.53278759105808
 20
264.89839966232711
 11
241.5077343090162
 21
264.83488185985669
  0
LINE
  8
_0-0__
  6
CONTINUOUS
 62
    7
 10
241.56210921004038
 20
264.96006166612779
 11
241.53278759105808
 21
264.89839966232711
  0
LINE
  8
_0-0__
  6
CONTINUOUS
 62
    7
 10
241.59557544605173
 20
265.01958331546268
 11
241.56210921004038
 21
264.96006166612779
  0
LINE
  8
_0-0__
  6
CONTINUOUS
 62
    7
 10
241.63302546320756
 20
265.07668005453576
 11
241.59557544605173
 21
265.01958331546268
  0
LINE
  8
_0-0__
  6
CONTINUOUS
 62
    7
 10
241.67428605363204
 20
265.13108588553763
 11
241.63302546320756
 21
265.07668005453576
  0
LINE
  8
_0-0__
  6
CONTINUOUS
 62
    7
 10
241.71915926546683
 20
265.18255336864576
 11
241.67428605363204
 21
265.13108588553763
  0
LINE
  8
_0-0__
  6
CONTINUOUS
 62
    7
 10
241.76744714685412
 20
265.23083506403742
 11
241.71915926546683
 21
265.18255336864576
  0
LINE
  8
_0-0__
  6
CONTINUOUS
 62
    7
 10
241.81891462996225
 20
265.27570827587232
 11
241.76744714685412
 21
265.23083506403742
  0
LINE
  8
_0-0__
  6
CONTINUOUS
 62
    7
 10
241.87331427496849
 20
265.31696886629669
 11
241.81891462996225
 21
265.27570827587232
  0
LINE
  8
_0-0__
  6
CONTINUOUS
 62
    7
 10
241.93041101404162
 20
265.35441888345252
 11
241.87331427496849
 21
265.31696886629669
  0
LINE
  8
_0-0__
  6
CONTINUOUS
 62
    7
 10
241.98993266337652
 20
265.38788511946393
 11
241.93041101404162
 21
265.35441888345252
  0
LINE
  8
_0-0__
  6
CONTINUOUS
 62
    7
 10
242.05159466717714
 20
265.4172129244418
 11
241.98993266337652
 21
265.38788511946393
  0
LINE
  8
_0-0__
  6
CONTINUOUS
 62
    7
 10
242.11511246964767
 20
265.44226002048799
 11
242.05159466717714
 21
265.4172129244418
  0
LINE
  8
_0-0__
  6
CONTINUOUS
 62
    7
 10
242.18020151499184
 20
265.46291505968247
 11
242.11511246964767
 21
265.44226002048799
  0
LINE
  8
_0-0__
  6
CONTINUOUS
 62
    7
 10
242.24654013144027
 20
265.47908525209169
 11
242.18020151499184
 21
265.46291505968247
  0
LINE
  8
_0-0__
  6
CONTINUOUS
 62
    7
 10
242.31383139120589
 20
265.49068399377774
 11
242.24654013144027
 21
265.47908525209169
  0
LINE
  8
_0-0__
  6
CONTINUOUS
 62
    7
 10
242.38175362251923
 20
265.49766798277159
 11
242.31383139120589
 21
265.49068399377774
  0
LINE
  8
_0-0__
  6
CONTINUOUS
 62
    7
 10
242.44999752560204
 20
265.50000010309992
 11
242.38175362251923
 21
265.49766798277159
  0
LINE
  8
_0-0__
  6
CONTINUOUS
 62
    7
 10
244.44999175200621
 20
265.50000010309992
 11
242.44999752560204
 21
265.50000010309992
  0
LINE
  8
_0-0__
  6
CONTINUOUS
 62
    7
 10
244.44999175200621
 20
267.50000051549961
 11
244.44999175200621
 21
265.50000010309992
  0
LINE
  8
_0-0__
  6
CONTINUOUS
 62
    7
 10
239.45000000000016
 20
267.50000051549961
 11
244.44999175200621
 21
267.50000051549961
  0
LINE
  8
_0-0__
  6
CONTINUOUS
 62
    7
 10
241.44999422640433
 20
169.55770183253929
 11
241.44999422640433
 21
162.58465895781643
  0
LINE
  8
_0-0__
  6
CONTINUOUS
 62
    7
 10
241.44999422640433
 20
152.41534001118424
 11
241.44999422640433
 21
145.44230332245695
  0
LINE
  8
_0-0__
  6
CONTINUOUS
 62
    7
 10
241.44999422640433
 20
249.55769977054081
 11
241.44999422640433
 21
242.58465998881576
  0
LINE
  8
_0-0__
  6
CONTINUOUS
 62
    7
 10
241.44999422640433
 20
232.41534104218357
 11
241.44999422640433
 21
225.44229971395959
  0
LINE
  8
_0-0__
  6
CONTINUOUS
 62
    7
 10
247.45000164959902
 20
164.30001078425227
 11
247.45000164959902
 21
166.30001119665195
  0
LINE
  8
_0-0__
  6
CONTINUOUS
 62
    7
 10
247.45000164959902
 20
148.70000942333326
 11
247.45000164959902
 21
150.70000983573294
  0
LINE
  8
_0-0__
  6
CONTINUOUS
 62
    7
 10
239.45000000000016
 20
127.50000257749815
 11
239.45000000000016
 21
267.50000051549961
  0
LINE
  8
_0-0__
  6
CONTINUOUS
 62
    7
 10
247.45000164959902
 20
244.29999944326039
 11
247.45000164959902
 21
246.29999985566013
  0
LINE
  8
_0-0__
  6
CONTINUOUS
 62
    7
 10
247.45000164959902
 20
228.69999189634581
 11
247.45000164959902
 21
230.69998921574773
  0
LINE
  8
_0-0__
  6
CONTINUOUS
 62
    7
 10
241.44999422640433
 20
252.50000051549961
 11
253.44999670080256
 21
252.50000051549961
  0
LINE
  8
_0-0__
  6
CONTINUOUS
 62
    7
 10
241.44999422640433
 20
264.50000298989784
 11
241.44999422640433
 21
252.50000051549961
  0
LINE
  8
_0-0__
  6
CONTINUOUS
 62
   18
 10
214.4499999999997
 20
264.99999999999989
 11
211.4499999999997
 21
264.99999999999989
  0
LINE
  8
_0-0__
  6
CONTINUOUS
 62
   18
 10
211.4499999999997
 20
264.99999999999989
 11
211.4499999999997
 21
279.99999999999989
  0
LINE
  8
_0-0__
  6
CONTINUOUS
 62
   18
 10
211.4499999999997
 20
279.99999999999989
 11
214.4499999999997
 21
279.99999999999989
  0
LINE
  8
_0-0__
  6
CONTINUOUS
 62
   18
 10
214.4499999999997
 20
279.99999999999989
 11
214.4499999999997
 21
264.99999999999989
  0
SOLID
  8
_0-0__
  6
CONTINUOUS
 62
    8
 10
214.4499999999997
 20
279.99999999999989
 11
211.4499999999997
 21
279.99999999999989
 12
214.4499999999997
 22
264.99999999999989
 13
211.4499999999997
 23
264.99999999999989
  0
LINE
  8
_0-0__
  6
CONTINUOUS
 62
    7
 10
236.95000000000005
 20
284.99999999999989
 11
216.94999999999982
 21
284.99999999999989
  0
LINE
  8
_0-0__
  6
CONTINUOUS
 62
    7
 10
216.70315856941534
 20
287.46841430583794
 11
219.17157287525413
 21
284.9999999999992
  0
LINE
  8
_0-0__
  6
DASHED1
 62
    7
 10
178
 20
21.699999999999989
 11
38
 21
21.699999999999989
  0
LINE
  8
_0-0__
  6
DASHED1
 62
    7
 10
178
 20
32.899999999999977
 11
38
 21
32.899999999999977
  0
LINE
  8
_0-0__
  6
CONTINUOUS
 62
    7
 10
38
 20
16.099999999999994
 11
38
 21
38.499999999999972
  0
LINE
  8
_0-0__
  6
DASHED1
 62
    7
 10
65.999999999999972
 20
16.099999999999994
 11
65.999999999999972
 21
38.499999999999972
  0
LINE
  8
_0-0__
  6
CONTINUOUS
 62
    7
 10
577
 20
403.89999999999998
 11
577
 21
16.099999999999994
  0
LINE
  8
_0-0__
  6
CONTINUOUS
 62
    7
 10
577
 20
16.099999999999994
 11
17
 21
16.099999999999994
  0
LINE
  8
_0-0__
  6
CONTINUOUS
 62
    7
 10
17
 20
403.89999999999998
 11
577
 21
403.89999999999998
  0
LINE
  8
_0-0__
  6
CONTINUOUS
 62
    7
 10
17
 20
16.099999999999994
 11
17
 21
403.89999999999998
  0
LINE
  8
_0-0__
  6
CONTINUOUS
 62
    7
 10
507
 20
27.299999999999983
 11
507
 21
16.099999999999994
  0
LINE
  8
_0-0__
  6
CONTINUOUS
 62
    7
 10
535
 20
27.299999999999983
 11
367
 21
27.299999999999983
  0
LINE
  8
_0-0__
  6
CONTINUOUS
 62
    7
 10
535
 20
38.499999999999972
 11
535
 21
16.099999999999994
  0
LINE
  8
_0-0__
  6
CONTINUOUS
 62
    7
 10
577
 20
38.499999999999972
 11
17
 21
38.499999999999972
  0
LINE
  8
_0-0__
  6
CONTINUOUS
 62
    7
 10
577
 20
39.199999999999989
 11
17
 21
39.199999999999989
  0
LINE
  8
_0-0__
  6
CONTINUOUS
 62
    7
 10
479
 20
38.499999999999972
 11
479
 21
16.099999999999994
  0
LINE
  8
_0-0__
  6
CONTINUOUS
 62
    7
 10
367
 20
38.499999999999972
 11
367
 21
16.099999999999994
  0
LINE
  8
_0-0__
  6
CONTINUOUS
 62
    7
 10
178
 20
16.099999999999994
 11
178
 21
38.499999999999972
  0
LINE
  8
_0-0__
  6
DASHED1
 62
    7
 10
178
 20
27.299999999999983
 11
38
 21
27.299999999999983
  0
LINE
  8
_0-0__
  6
CONTINUOUS
 62
    7
 10
577.27999999999997
 20
404.18000000000001
 11
16.71999999999997
 21
404.18000000000001
  0
LINE
  8
_0-0__
  6
CONTINUOUS
 62
    7
 10
16.71999999999997
 20
404.18000000000001
 11
16.71999999999997
 21
15.819999999999993
  0
LINE
  8
_0-0__
  6
CONTINUOUS
 62
    7
 10
577.27999999999997
 20
15.819999999999993
 11
577.27999999999997
 21
404.18000000000001
  0
LINE
  8
_0-0__
  6
CONTINUOUS
 62
    7
 10
16.71999999999997
 20
15.819999999999993
 11
577.27999999999997
 21
15.819999999999993
  0
LINE
  8
ADD_LINE
  6
DOT
 62
    9
 10
16.71999999999997
 20
404.18000000000001
 11
577.27999999999997
 21
15.819999999999993
  0
LINE
  8
ADD_LINE
  6
DOT
 62
    9
 10
16.71999999999997
 20
15.819999999999993
 11
577.27999999999997
 21
404.18000000000001
  0
TEXT
  8
_0-0__
 62
    7
 10
24.200000000000102
 20
25.699999999999989
 40
3.2000000000000002
 41
1
 50
0
  1
改訂
  0
TEXT
  8
_0-0__
 62
    7
 10
369
 20
23.099999999999994
 40
3.2000000000000002
 41
1
 50
0
  1
図面名
  0
TEXT
  8
_0-0__
 62
    7
 10
369
 20
34.299999999999983
 40
3.2000000000000002
 41
1
 50
0
  1
件名
  0
TEXT
  8
_0-0__
 62
    7
 10
481
 20
34.299999999999983
 40
3.2000000000000002
 41
1
 50
0
  1
DATE
  0
TEXT
  8
_0-0__
 62
    7
 10
481
 20
23.099999999999994
 40
3.2000000000000002
 41
1
 50
0
  1
SCALE
  0
TEXT
  8
_0-0__
 62
    7
 10
509.00000000000006
 20
23.099999999999994
 40
3.2000000000000002
 41
1
 50
0
  1
担当
  0
TEXT
  8
_0-0__
 62
    7
 10
537
 20
34.299999999999983
 40
3.2000000000000002
 41
1
 50
0
  1
図面№
  0
TEXT
  8
_0-0__
 62
    7
 10
256.80849887332408
 20
32.360000000000014
 40
3.6000000000000001
 41
1
 50
0
  1
〒166-0004　東京都杉並区阿佐谷南1-33-1　第二東都ビル2F
  0
TEXT
  8
_0-0__
 62
    2
 10
485
 20
17.889999999999986
 40
4.4000000000000004
 41
1
 50
0
  1
A4：1/2
  0
TEXT
  8
_0-0__
 62
    7
 10
256.80849887332408
 20
27.759999999999991
 40
3.6000000000000001
 41
1
 50
0
  1
TEL：03(5305)4322 / FAX：03(3316)4177
  0
TEXT
  8
_0-0__
 62
    7
 10
256.80849887332408
 20
18.560000000000059
 40
3.6000000000000001
 41
1
 50
0
  1
e-mail：info@pailon.co.jp
  0
TEXT
  8
_0-0__
 62
    7
 10
196.10869565217394
 20
24.652173913043498
 40
6
 41
1
 50
0
  1
パイロン株式会社
  0
TEXT
  8
_0-0__
 62
    2
 10
495.55000000000013
 20
29.089999999999975
 40
4.4000000000000004
 41
1
 50
0
  1
2021/11/01
  0
TEXT
  8
_0-0__
 62
    2
 10
387.45000000000005
 20
29.089999999999975
 40
4.4000000000000004
 41
1
 50
0
  1
鉛直スリットＰスリット 納まり図
  0
POINT
  8
_0-0__
 62
    7
 10
515.45000000000016
 20
310
  0
POINT
  8
_0-0__
 62
    7
 10
515.45000000000016
 20
109.99999999999999
  0
LINE
  8
_0-0__
  6
CONTINUOUS
 62
    7
 10
515.45000000000016
 20
310
 11
515.45000000000016
 21
109.99999999999999
  0
TEXT
  8
_0-0__
 62
    7
 10
514.45000000000016
 20
205
 40
5
 41
1
 50
90
  1
壁厚
  0
TEXT
  8
_0-0__
 62
    7
 10
510.45000000000016
 20
311
 40
5
 41
1
 50
0
  1
外部側
  0
TEXT
  8
_0-0__
 62
    7
 10
510.45000000000016
 20
103.99999999999999
 40
5
 41
1
 50
0
  1
内部側
  0
LINE
  8
_0-0__
  6
CONTINUOUS
 62
    7
 10
525.45000000000016
 20
310
 11
239.45000000000016
 21
310
  0
LINE
  8
_0-0__
  6
CONTINUOUS
 62
    7
 10
216.94999999999982
 20
284.99999999999989
 11
214.4499999999997
 21
310
  0
LINE
  8
_0-0__
  6
CONTINUOUS
 62
    7
 10
214.4499999999997
 20
310
 11
68.549999999999955
 21
310
  0
LINE
  8
_0-0__
  6
CONTINUOUS
 62
    7
 10
239.45000000000016
 20
310
 11
236.95000000000005
 21
284.99999999999989
  0
LINE
  8
_0-0__
  6
CONTINUOUS
 62
    7
 10
215.67999999999972
 20
297.70000000000005
 11
238.22000000000014
 21
297.70000000000005
  0
ARC
  8
_0-0__
  6
CONTINUOUS
 62
    7
 10
226.94999999999993
 20
334.5416666666676
 40
27.541666666667613
 50
243.00853343840885
 51
296.99146656159115
  0
ARC
  8
_0-0__
  6
CONTINUOUS
 62
    1
 10
226.94999999999993
 20
334.5416666666676
 40
27.541666666667613
 50
243.00853343840885
 51
296.99146656159115
  0
SOLID
  8
_0-0__
  6
CONTINUOUS
 62
    9
 10
214.4499999999997
 20
310
 11
215.67999999999972
 21
297.70000000000005
 12
238.22000000000014
 22
297.70000000000005
 13
238.22000000000014
 23
297.70000000000005
  0
SOLID
  8
_0-0__
  6
CONTINUOUS
 62
    9
 10
238.22000000000014
 20
297.70000000000005
 11
239.45000000000016
 21
310
 12
226.94999999999993
 22
303.6332767402377
 13
226.94999999999993
 23
303.6332767402377
  0
SOLID
  8
_0-0__
  6
CONTINUOUS
 62
    9
 10
238.22000000000014
 20
297.70000000000005
 11
226.94999999999993
 21
303.6332767402377
 12
214.4499999999997
 22
310
 13
214.4499999999997
 23
310
  0
LINE
  8
_0-0__
  6
CONTINUOUS
 62
    7
 10
236.23549801218144
 20
284.9999999999996
 11
237.02938910975786
 21
285.79389109757614
  0
LINE
  8
_0-0__
  6
CONTINUOUS
 62
    7
 10
233.40707088743397
 20
284.99999999999892
 11
237.34365879028564
 21
288.93658790285048
  0
LINE
  8
_0-0__
  6
CONTINUOUS
 62
    7
 10
230.57864376269163
 20
284.99999999999955
 11
237.65792847081138
 21
292.07928470811925
  0
LINE
  8
_0-0__
  6
CONTINUOUS
 62
    7
 10
227.7502166379453
 20
284.99999999999989
 11
237.97219815133883
 21
295.22198151339347
  0
LINE
  8
_0-0__
  6
CONTINUOUS
 62
    7
 10
224.92178951319897
 20
285.00000000000023
 11
237.62178951319868
 21
297.69999999999987
  0
LINE
  8
_0-0__
  6
CONTINUOUS
 62
    7
 10
222.09336238845265
 20
285.00000000000057
 11
234.79336238845224
 21
297.7000000000001
  0
LINE
  8
_0-0__
  6
CONTINUOUS
 62
    7
 10
219.26493526370632
 20
285.00000000000097
 11
231.96493526370568
 21
297.70000000000027
  0
LINE
  8
_0-0__
  6
CONTINUOUS
 62
    7
 10
216.90331892172219
 20
285.46681078276345
 11
229.13650813895924
 21
297.7000000000005
  0
LINE
  8
_0-0__
  6
CONTINUOUS
 62
    7
 10
216.64618918310953
 20
288.03810816889745
 11
226.3080810142128
 21
297.70000000000067
  0
LINE
  8
_0-0__
  6
CONTINUOUS
 62
    7
 10
216.38905944449652
 20
290.60940555503106
 11
223.47965388946625
 21
297.7000000000009
  0
LINE
  8
_0-0__
  6
CONTINUOUS
 62
    7
 10
216.13192970588398
 20
293.1807029411616
 11
220.65122676472186
 21
297.69999999999948
  0
LINE
  8
_0-0__
  6
CONTINUOUS
 62
    7
 10
215.87479996727063
 20
295.75200032729492
 11
217.8227996399753
 21
297.69999999999953
  0
LINE
  8
_0-0__
  6
CONTINUOUS
 62
    7
 10
216.38888888888857
 20
290.61111111111143
 11
222.00000000000045
 21
284.99999999999955
  0
LINE
  8
_0-0__
  6
CONTINUOUS
 62
    7
 10
216.0746192083617
 20
293.75380791638491
 11
224.82842712474678
 21
284.99999999999989
  0
LINE
  8
_0-0__
  6
CONTINUOUS
 62
    7
 10
215.76034952783493
 20
296.8965047216584
 11
227.65685424949311
 21
285.00000000000023
  0
LINE
  8
_0-0__
  6
CONTINUOUS
 62
    7
 10
217.78528137423882
 20
297.70000000000113
 11
230.48528137424046
 21
284.99999999999955
  0
LINE
  8
_0-0__
  6
CONTINUOUS
 62
    7
 10
220.61370849898242
 20
297.70000000000067
 11
233.31370849898281
 21
285.00000000000017
  0
LINE
  8
_0-0__
  6
CONTINUOUS
 62
    7
 10
223.44213562372988
 20
297.69999999999982
 11
236.14213562372913
 21
285.00000000000051
  0
LINE
  8
_0-0__
  6
CONTINUOUS
 62
    7
 10
226.27056274847632
 20
297.69999999999999
 11
237.13368752258873
 21
286.8368752258877
  0
LINE
  8
_0-0__
  6
CONTINUOUS
 62
    7
 10
229.09898987322288
 20
297.70000000000022
 11
237.39081726120219
 21
289.40817261202079
  0
LINE
  8
_0-0__
  6
CONTINUOUS
 62
    7
 10
231.92741699796932
 20
297.70000000000039
 11
237.64794699981576
 21
291.97946999815395
  0
LINE
  8
_0-0__
  6
CONTINUOUS
 62
    7
 10
234.75584412271667
 20
297.6999999999997
 11
237.90507673842865
 21
294.55076738428778
  0
LINE
  8
_0-0__
  6
CONTINUOUS
 62
    7
 10
237.58427124746322
 20
297.69999999999976
 11
238.16220647704199
 21
297.12206477042105
  0
POINT
  8
_0-0__
 62
   18
 10
232.45000000000005
 20
291.35000000000002
  0
LINE
  8
_0-0__
  6
CONTINUOUS
 62
    7
 10
252.45000000000005
 20
291.35000000000002
 11
232.45000000000005
 21
291.35000000000002
  0
POINT
  8
_0-0__
 62
   18
 10
232.45000000000005
 20
302.99999999999989
  0
LINE
  8
_0-0__
  6
CONTINUOUS
 62
    7
 10
252.45000000000005
 20
302.99999999999989
 11
232.45000000000005
 21
302.99999999999989
  0
TEXT
  8
_0-0__
 62
    7
 10
253.45000000000005
 20
300.49999999999983
 40
5
 41
1
 50
0
  1
シーリング
  0
TEXT
  8
_0-0__
 62
    7
 10
86.5
 20
87.949999999999974
 40
4
 41
1
 50
0
  1
鉛直スリット
  0
LINE
  8
_0-0__
  6
CONTINUOUS
 62
    7
 10
44
 20
116.69999999999997
 11
47
 21
116.69999999999997
  0
LINE
  8
_0-0__
  6
CONTINUOUS
 62
    7
 10
44
 20
106.69999999999997
 11
47
 21
106.69999999999997
  0
LINE
  8
_0-0__
  6
CONTINUOUS
 62
    7
 10
57
 20
106.69999999999997
 11
117
 21
106.69999999999997
  0
LINE
  8
_0-0__
  6
CONTINUOUS
 62
    7
 10
127
 20
106.69999999999997
 11
130
 21
106.69999999999997
  0
LINE
  8
_0-0__
  6
CONTINUOUS
 62
    7
 10
57
 20
116.69999999999997
 11
117
 21
116.69999999999997
  0
LINE
  8
_0-0__
  6
CONTINUOUS
 62
    7
 10
127
 20
116.69999999999997
 11
130
 21
116.69999999999997
  0
LINE
  8
_0-0__
  6
CONTINUOUS
 62
    7
 10
83.999999999999886
 20
115.10000000000007
 11
83.999999999999886
 21
109.09999999999995
  0
LINE
  8
_0-0__
  6
CONTINUOUS
 62
    7
 10
83.999999999999886
 20
109.09999999999995
 11
90.000000000000114
 21
109.09999999999995
  0
LINE
  8
_0-0__
  6
CONTINUOUS
 62
    7
 10
90.000000000000114
 20
115.10000000000007
 11
83.999999999999886
 21
115.10000000000007
  0
LINE
  8
_0-0__
  6
CONTINUOUS
 62
    7
 10
90.000000000000114
 20
109.09999999999995
 11
90.000000000000114
 21
115.10000000000007
  0
LINE
  8
_0-0__
  6
CONTINUOUS
 62
    7
 10
147
 20
129.19999999999999
 11
27
 21
129.19999999999999
  0
SOLID
  8
_0-0__
  6
CONTINUOUS
 62
    1
 10
57
 20
106.69999999999997
 11
57
 21
73.199999999999989
 12
58.5
 22
106.69999999999997
 13
58.5
 23
73.199999999999989
  0
LINE
  8
_0-0__
  6
CONTINUOUS
 62
    7
 10
117
 20
119.69999999999997
 11
117
 21
58.699999999999989
  0
LINE
  8
_0-0__
  6
CONTINUOUS
 62
    7
 10
57
 20
119.69999999999997
 11
57
 21
58.699999999999989
  0
LINE
  8
_0-0__
  6
CONTINUOUS
 62
    7
 10
47
 20
119.69999999999997
 11
47
 21
58.699999999999989
  0
LINE
  8
_0-0__
  6
CONTINUOUS
 62
    7
 10
127
 20
119.69999999999997
 11
127
 21
58.699999999999989
  0
LINE
  8
_0-0__
  6
CONTINUOUS
 62
    7
 10
58.5
 20
106.69999999999997
 11
58.5
 21
73.199999999999989
  0
LINE
  8
_0-0__
  6
CONTINUOUS
 62
    7
 10
115.5
 20
106.69999999999997
 11
115.5
 21
73.199999999999989
  0
LINE
  8
_0-0__
  6
CONTINUOUS
 62
    7
 10
57
 20
73.199999999999989
 11
117
 21
73.199999999999989
  0
LINE
  8
_0-0__
  6
CONTINUOUS
 62
    7
 10
44
 20
71.699999999999989
 11
47
 21
71.699999999999989
  0
LINE
  8
_0-0__
  6
CONTINUOUS
 62
    7
 10
44
 20
61.699999999999989
 11
47
 21
61.699999999999989
  0
LINE
  8
_0-0__
  6
CONTINUOUS
 62
    7
 10
57
 20
71.699999999999989
 11
117
 21
71.699999999999989
  0
LINE
  8
_0-0__
  6
CONTINUOUS
 62
    7
 10
127
 20
71.699999999999989
 11
130
 21
71.699999999999989
  0
LINE
  8
_0-0__
  6
CONTINUOUS
 62
    7
 10
57
 20
61.699999999999989
 11
117
 21
61.699999999999989
  0
LINE
  8
_0-0__
  6
CONTINUOUS
 62
    7
 10
127
 20
61.699999999999989
 11
130
 21
61.699999999999989
  0
LINE
  8
_0-0__
  6
CONTINUOUS
 62
    7
 10
83.999999999999886
 20
70.10000000000008
 11
83.999999999999886
 21
64.099999999999966
  0
LINE
  8
_0-0__
  6
CONTINUOUS
 62
    7
 10
83.999999999999886
 20
64.099999999999966
 11
90.000000000000114
 21
64.099999999999966
  0
LINE
  8
_0-0__
  6
CONTINUOUS
 62
    7
 10
90.000000000000114
 20
70.10000000000008
 11
83.999999999999886
 21
70.10000000000008
  0
LINE
  8
_0-0__
  6
CONTINUOUS
 62
    7
 10
90.000000000000114
 20
64.099999999999966
 11
90.000000000000114
 21
70.10000000000008
  0
TEXT
  8
_0-0__
 62
    7
 10
85
 20
65.100000000000023
 40
4
 41
1
 50
0
  1
梁
  0
SOLID
  8
_0-0__
  6
CONTINUOUS
 62
    1
 10
115.5
 20
106.69999999999997
 11
115.5
 21
73.199999999999989
 12
117
 22
106.69999999999997
 13
117
 23
73.199999999999989
  0
LINE
  8
_0-0__
  6
CONTINUOUS
 62
    7
 10
116.94658563609175
 20
71.700000000000216
 11
116.99999999999977
 21
71.753414363908234
  0
LINE
  8
_0-0__
  6
CONTINUOUS
 62
    7
 10
116.09805749866825
 20
71.699999999999875
 11
117
 21
72.601942501331678
  0
LINE
  8
_0-0__
  6
CONTINUOUS
 62
    7
 10
115.24952936124464
 20
71.699999999999648
 11
116.74952936124475
 21
73.199999999999818
  0
LINE
  8
_0-0__
  6
CONTINUOUS
 62
    7
 10
114.40100122381921
 20
71.69999999999925
 11
115.90100122381921
 21
73.199999999999307
  0
LINE
  8
_0-0__
  6
CONTINUOUS
 62
    7
 10
113.55247308639457
 20
71.699999999999761
 11
115.0524730863948
 21
73.199999999999932
  0
LINE
  8
_0-0__
  6
CONTINUOUS
 62
    7
 10
112.70394494897209
 20
71.7000000000005
 11
114.20394494897118
 21
73.199999999999591
  0
LINE
  8
_0-0__
  6
CONTINUOUS
 62
    7
 10
111.85541681154848
 20
71.700000000000273
 11
113.35541681154871
 21
73.200000000000387
  0
LINE
  8
_0-0__
  6
CONTINUOUS
 62
    7
 10
111.00688867412498
 20
71.699999999999932
 11
112.50688867412509
 21
73.200000000000045
  0
LINE
  8
_0-0__
  6
CONTINUOUS
 62
    7
 10
110.15836053670148
 20
71.699999999999761
 11
111.65836053670159
 21
73.199999999999818
  0
LINE
  8
_0-0__
  6
CONTINUOUS
 62
    7
 10
109.30983239927798
 20
71.69999999999942
 11
110.80983239927809
 21
73.199999999999591
  0
LINE
  8
_0-0__
  6
CONTINUOUS
 62
    7
 10
108.46130426185141
 20
71.699999999999818
 11
109.96130426185152
 21
73.199999999999932
  0
LINE
  8
_0-0__
  6
CONTINUOUS
 62
    7
 10
107.61277612442893
 20
71.700000000000557
 11
109.11277612442802
 21
73.199999999999648
  0
LINE
  8
_0-0__
  6
CONTINUOUS
 62
    7
 10
106.76424798700532
 20
71.700000000000273
 11
108.26424798700543
 21
73.200000000000387
  0
LINE
  8
_0-0__
  6
CONTINUOUS
 62
    7
 10
105.91571984958171
 20
71.699999999999932
 11
107.41571984958193
 21
73.200000000000102
  0
LINE
  8
_0-0__
  6
CONTINUOUS
 62
    7
 10
105.06719171215843
 20
71.699999999999875
 11
106.56719171215843
 21
73.199999999999989
  0
LINE
  8
_0-0__
  6
CONTINUOUS
 62
    7
 10
104.21866357473471
 20
71.699999999999591
 11
105.71866357473493
 21
73.199999999999704
  0
LINE
  8
_0-0__
  6
CONTINUOUS
 62
    7
 10
103.37013543730814
 20
71.699999999999818
 11
104.87013543730825
 21
73.199999999999989
  0
LINE
  8
_0-0__
  6
CONTINUOUS
 62
    7
 10
102.52160729988566
 20
71.700000000000557
 11
104.02160729988475
 21
73.199999999999648
  0
LINE
  8
_0-0__
  6
CONTINUOUS
 62
    7
 10
101.67307916246205
 20
71.70000000000033
 11
103.17307916246216
 21
73.200000000000387
  0
LINE
  8
_0-0__
  6
CONTINUOUS
 62
    7
 10
100.82455102503843
 20
71.699999999999989
 11
102.32455102503866
 21
73.200000000000159
  0
LINE
  8
_0-0__
  6
CONTINUOUS
 62
    7
 10
99.976022887615159
 20
71.699999999999989
 11
101.47602288761539
 21
73.200000000000102
  0
LINE
  8
_0-0__
  6
CONTINUOUS
 62
    7
 10
99.127494750191659
 20
71.699999999999704
 11
100.62749475019177
 21
73.199999999999818
  0
LINE
  8
_0-0__
  6
CONTINUOUS
 62
    7
 10
98.278966612764179
 20
71.699999999999136
 11
99.778966612764293
 21
73.199999999999193
  0
LINE
  8
_0-0__
  6
CONTINUOUS
 62
    7
 10
97.430438475341248
 20
71.699999999999534
 11
98.930438475341475
 21
73.199999999999704
  0
LINE
  8
_0-0__
  6
CONTINUOUS
 62
    7
 10
96.581910337918885
 20
71.70000000000033
 11
98.081910337917975
 21
73.19999999999942
  0
LINE
  8
_0-0__
  6
CONTINUOUS
 62
    7
 10
95.733382200495157
 20
71.699999999999989
 11
97.233382200495384
 21
73.200000000000159
  0
LINE
  8
_0-0__
  6
CONTINUOUS
 62
    7
 10
94.884854063071657
 20
71.699999999999704
 11
96.384854063071771
 21
73.199999999999818
  0
LINE
  8
_0-0__
  6
CONTINUOUS
 62
    7
 10
94.036325925648498
 20
71.699999999999818
 11
95.536325925648612
 21
73.199999999999932
  0
LINE
  8
_0-0__
  6
CONTINUOUS
 62
    7
 10
93.187797788224884
 20
71.699999999999534
 11
94.687797788224998
 21
73.199999999999648
  0
LINE
  8
_0-0__
  6
CONTINUOUS
 62
    7
 10
92.339269650798087
 20
71.699999999999591
 11
93.839269650798201
 21
73.199999999999704
  0
LINE
  8
_0-0__
  6
CONTINUOUS
 62
    7
 10
91.49074151337561
 20
71.70000000000033
 11
92.990741513374701
 21
73.19999999999942
  0
LINE
  8
_0-0__
  6
CONTINUOUS
 62
    7
 10
90.642213375951883
 20
71.700000000000045
 11
92.14221337595211
 21
73.200000000000216
  0
LINE
  8
_0-0__
  6
CONTINUOUS
 62
    7
 10
89.793685238528383
 20
71.699999999999704
 11
91.29368523852861
 21
73.199999999999875
  0
LINE
  8
_0-0__
  6
CONTINUOUS
 62
    7
 10
88.945157101105337
 20
71.699999999999932
 11
90.445157101105451
 21
73.200000000000045
  0
LINE
  8
_0-0__
  6
CONTINUOUS
 62
    7
 10
88.096628963681837
 20
71.699999999999648
 11
89.596628963681837
 21
73.199999999999761
  0
LINE
  8
_0-0__
  6
CONTINUOUS
 62
    7
 10
87.248100826254813
 20
71.699999999999591
 11
88.748100826254927
 21
73.199999999999761
  0
LINE
  8
_0-0__
  6
CONTINUOUS
 62
    7
 10
86.399572688832336
 20
71.700000000000387
 11
87.899572688831427
 21
73.19999999999942
  0
LINE
  8
_0-0__
  6
CONTINUOUS
 62
    7
 10
85.551044551408722
 20
71.700000000000045
 11
87.051044551408836
 21
73.200000000000159
  0
LINE
  8
_0-0__
  6
CONTINUOUS
 62
    7
 10
84.702516413985109
 20
71.699999999999761
 11
86.202516413985336
 21
73.199999999999875
  0
LINE
  8
_0-0__
  6
CONTINUOUS
 62
    7
 10
83.853988276562063
 20
71.700000000000045
 11
85.353988276562291
 21
73.200000000000216
  0
LINE
  8
_0-0__
  6
CONTINUOUS
 62
    7
 10
83.005460139138563
 20
71.699999999999818
 11
84.505460139138791
 21
73.199999999999875
  0
LINE
  8
_0-0__
  6
CONTINUOUS
 62
    7
 10
82.156932001711539
 20
71.699999999999591
 11
83.656932001711652
 21
73.199999999999761
  0
LINE
  8
_0-0__
  6
CONTINUOUS
 62
    7
 10
81.308403864289062
 20
71.700000000000387
 11
82.808403864288152
 21
73.199999999999477
  0
LINE
  8
_0-0__
  6
CONTINUOUS
 62
    7
 10
80.459875726865448
 20
71.700000000000102
 11
81.959875726865562
 21
73.200000000000216
  0
LINE
  8
_0-0__
  6
CONTINUOUS
 62
    7
 10
79.611347589441948
 20
71.699999999999818
 11
81.111347589442062
 21
73.199999999999932
  0
LINE
  8
_0-0__
  6
CONTINUOUS
 62
    7
 10
78.762819452019016
 20
71.700000000000159
 11
80.26281945201913
 21
73.200000000000273
  0
LINE
  8
_0-0__
  6
CONTINUOUS
 62
    7
 10
77.914291314595516
 20
71.699999999999875
 11
79.414291314595516
 21
73.199999999999989
  0
LINE
  8
_0-0__
  6
CONTINUOUS
 62
    7
 10
77.065763177171902
 20
71.699999999999591
 11
78.565763177172016
 21
73.199999999999704
  0
LINE
  8
_0-0__
  6
CONTINUOUS
 62
    7
 10
76.217235039744764
 20
71.699999999999363
 11
77.717235039744878
 21
73.19999999999942
  0
LINE
  8
_0-0__
  6
CONTINUOUS
 62
    7
 10
75.368706902322288
 20
71.700000000000102
 11
76.868706902322401
 21
73.200000000000273
  0
LINE
  8
_0-0__
  6
CONTINUOUS
 62
    7
 10
74.520178764898674
 20
71.699999999999818
 11
76.020178764898787
 21
73.199999999999932
  0
LINE
  8
_0-0__
  6
CONTINUOUS
 62
    7
 10
73.671650627475856
 20
71.700000000000273
 11
75.171650627475969
 21
73.200000000000387
  0
LINE
  8
_0-0__
  6
CONTINUOUS
 62
    7
 10
72.823122490052242
 20
71.699999999999989
 11
74.323122490052469
 21
73.200000000000102
  0
LINE
  8
_0-0__
  6
CONTINUOUS
 62
    7
 10
71.974594352628742
 20
71.699999999999704
 11
73.474594352628856
 21
73.199999999999818
  0
LINE
  8
_0-0__
  6
CONTINUOUS
 62
    7
 10
71.12606621520149
 20
71.69999999999942
 11
72.626066215201604
 21
73.199999999999477
  0
LINE
  8
_0-0__
  6
CONTINUOUS
 62
    7
 10
70.277538077779013
 20
71.700000000000159
 11
71.777538077778104
 21
73.19999999999925
  0
LINE
  8
_0-0__
  6
CONTINUOUS
 62
    7
 10
69.4290099403554
 20
71.699999999999818
 11
70.929009940355513
 21
73.199999999999932
  0
LINE
  8
_0-0__
  6
CONTINUOUS
 62
    7
 10
68.580481802931786
 20
71.699999999999534
 11
70.080481802932013
 21
73.199999999999704
  0
LINE
  8
_0-0__
  6
CONTINUOUS
 62
    7
 10
67.731953665509195
 20
71.700000000000102
 11
69.231953665509195
 21
73.200000000000216
  0
LINE
  8
_0-0__
  6
CONTINUOUS
 62
    7
 10
66.883425528085581
 20
71.699999999999818
 11
68.383425528085695
 21
73.199999999999932
  0
LINE
  8
_0-0__
  6
CONTINUOUS
 62
    7
 10
66.034897390658216
 20
71.69999999999942
 11
67.53489739065833
 21
73.199999999999534
  0
LINE
  8
_0-0__
  6
CONTINUOUS
 62
    7
 10
65.186369253235739
 20
71.700000000000159
 11
66.68636925323483
 21
73.19999999999925
  0
LINE
  8
_0-0__
  6
CONTINUOUS
 62
    7
 10
64.337841115812239
 20
71.699999999999875
 11
65.837841115812239
 21
73.199999999999989
  0
LINE
  8
_0-0__
  6
CONTINUOUS
 62
    7
 10
63.489312978388625
 20
71.699999999999534
 11
64.989312978388739
 21
73.199999999999761
  0
LINE
  8
_0-0__
  6
CONTINUOUS
 62
    7
 10
62.640784840965921
 20
71.700000000000216
 11
64.140784840966035
 21
73.20000000000033
  0
LINE
  8
_0-0__
  6
CONTINUOUS
 62
    7
 10
61.792256703542421
 20
71.699999999999932
 11
63.292256703542535
 21
73.200000000000045
  0
LINE
  8
_0-0__
  6
CONTINUOUS
 62
    7
 10
60.943728566118921
 20
71.699999999999704
 11
62.443728566118921
 21
73.199999999999761
  0
LINE
  8
_0-0__
  6
CONTINUOUS
 62
    7
 10
60.095200428692465
 20
71.700000000000216
 11
61.595200428691555
 21
73.19999999999925
  0
LINE
  8
_0-0__
  6
CONTINUOUS
 62
    7
 10
59.246672291268965
 20
71.699999999999875
 11
60.746672291269078
 21
73.199999999999989
  0
LINE
  8
_0-0__
  6
CONTINUOUS
 62
    7
 10
58.398144153845351
 20
71.699999999999591
 11
59.898144153845465
 21
73.199999999999704
  0
LINE
  8
_0-0__
  6
CONTINUOUS
 62
    7
 10
57.549616016422874
 20
71.70000000000033
 11
59.049616016422874
 21
73.200000000000443
  0
LINE
  8
_0-0__
  6
CONTINUOUS
 62
    7
 10
56.999999999999886
 20
71.998912121000728
 11
58.201087878999374
 21
73.200000000000159
  0
LINE
  8
_0-0__
  6
CONTINUOUS
 62
    7
 10
57.000000000000114
 20
72.847440258424228
 11
57.352559741575874
 21
73.199999999999875
  0
LINE
  8
_0-0__
  6
CONTINUOUS
 62
    7
 10
27
 20
49.199999999999989
 11
147
 21
49.199999999999989
  0
LINE
  8
_0-0__
  6
CONTINUOUS
 62
    7
 10
147
 20
49.199999999999989
 11
147
 21
129.19999999999999
  0
LINE
  8
_0-0__
  6
CONTINUOUS
 62
    7
 10
27
 20
129.19999999999999
 11
27
 21
49.199999999999989
  0
TEXT
  8
_0-0__
 62
    7
 10
78
 20
77.199999999999989
 40
3
 41
1
 50
0
  1
水平スリット
  0
LINE
  8
_0-0__
  6
CONTINUOUS
 62
    7
 10
88.299038105676686
 20
76.449999999999989
 11
85.700961894323314
 21
76.449999999999989
  0
LINE
  8
_0-0__
  6
CONTINUOUS
 62
    7
 10
85.700961894323314
 20
76.449999999999989
 11
87
 21
74.199999999999989
  0
LINE
  8
_0-0__
  6
CONTINUOUS
 62
    7
 10
87
 20
74.199999999999989
 11
88.299038105676686
 21
76.449999999999989
  0
SOLID
  8
_0-0__
  6
CONTINUOUS
 62
  178
 10
87
 20
74.199999999999989
 11
88.299038105676686
 21
76.449999999999989
 12
87
 22
74.199999999999989
 13
85.700961894323314
 23
76.449999999999989
  0
TEXT
  8
_0-0__
 62
    7
 10
50
 20
87.600000000000009
 40
4
 41
1
 50
0
  1
柱
  0
LINE
  8
_0-0__
  6
CONTINUOUS
 62
    7
 10
49
 20
92.600000000000065
 11
49
 21
86.599999999999952
  0
LINE
  8
_0-0__
  6
CONTINUOUS
 62
    7
 10
49
 20
86.599999999999952
 11
55
 21
86.599999999999952
  0
LINE
  8
_0-0__
  6
CONTINUOUS
 62
    7
 10
55
 20
92.600000000000065
 11
49
 21
92.600000000000065
  0
LINE
  8
_0-0__
  6
CONTINUOUS
 62
    7
 10
55
 20
86.599999999999952
 11
55
 21
92.600000000000065
  0
TEXT
  8
_0-0__
 62
    7
 10
120
 20
87.600000000000009
 40
4
 41
1
 50
0
  1
柱
  0
LINE
  8
_0-0__
  6
CONTINUOUS
 62
    7
 10
118.99999999999989
 20
92.600000000000065
 11
118.99999999999989
 21
86.599999999999952
  0
LINE
  8
_0-0__
  6
CONTINUOUS
 62
    7
 10
118.99999999999989
 20
86.599999999999952
 11
125.00000000000011
 21
86.599999999999952
  0
LINE
  8
_0-0__
  6
CONTINUOUS
 62
    7
 10
125.00000000000011
 20
92.600000000000065
 11
118.99999999999989
 21
92.600000000000065
  0
LINE
  8
_0-0__
  6
CONTINUOUS
 62
    7
 10
125.00000000000011
 20
86.599999999999952
 11
125.00000000000011
 21
92.600000000000065
  0
LINE
  8
_0-0__
  6
CONTINUOUS
 62
    7
 10
114.5
 20
89.949999999999974
 11
111.5
 21
88.217949192431078
  0
LINE
  8
_0-0__
  6
CONTINUOUS
 62
    7
 10
111.5
 20
91.682050807568871
 11
114.5
 21
89.949999999999974
  0
LINE
  8
_0-0__
  6
CONTINUOUS
 62
    7
 10
111.5
 20
88.217949192431078
 11
111.5
 21
91.682050807568871
  0
SOLID
  8
_0-0__
  6
CONTINUOUS
 62
    1
 10
114.5
 20
89.949999999999974
 11
111.5
 21
88.217949192431078
 12
114.5
 22
89.949999999999974
 13
111.5
 23
91.682050807568871
  0
TEXT
  8
_0-0__
 62
    7
 10
85
 20
110.10000000000001
 40
4
 41
1
 50
0
  1
梁
  0
LINE
  8
_0-0__
  6
CONTINUOUS
 62
    7
 10
59.5
 20
99.949999999999974
 11
62.5
 21
98.217949192431078
  0
LINE
  8
_0-0__
  6
CONTINUOUS
 62
    7
 10
62.5
 20
101.68205080756887
 11
59.5
 21
99.949999999999974
  0
LINE
  8
_0-0__
  6
CONTINUOUS
 62
    7
 10
62.5
 20
98.217949192431078
 11
62.5
 21
101.68205080756887
  0
SOLID
  8
_0-0__
  6
CONTINUOUS
 62
    1
 10
59.5
 20
99.949999999999974
 11
62.5
 21
98.217949192431078
 12
59.5
 22
99.949999999999974
 13
62.5
 23
101.68205080756887
  0
TEXT
  8
_0-0__
 62
    7
 10
63.5
 20
97.949999999999974
 40
4
 41
1
 50
0
  1
鉛直スリット
  0
LINE
  8
_0-0__
  6
CONTINUOUS
 62
    7
 10
27
 20
393.89999999999998
 11
27
 21
373.89999999999998
  0
TEXT
  8
_0-0__
 62
    7
 10
253.45000000000005
 20
288.84999999999997
 40
5
 41
1
 50
0
  1
バックアップ材
  0
TEXT
  8
_0-0__
 62
    2
 10
390.90000000000009
 20
17.88999999999993
 40
4.4000000000000004
 41
1
 50
0
  1
Ｐ－２５Ｒ(Ｂ)【Ａ－Ｓ金具】
  0
LINE
  8
_0-0__
  6
CONTINUOUS
 62
    7
 10
27
 20
373.89999999999998
 11
147
 21
373.89999999999998
  0
LINE
  8
_0-0__
  6
CONTINUOUS
 62
    7
 10
147
 20
373.89999999999998
 11
147
 21
393.89999999999998
  0
LINE
  8
_0-0__
  6
CONTINUOUS
 62
    7
 10
147
 20
393.89999999999998
 11
27
 21
393.89999999999998
  0
TEXT
  8
_0-0__
 62
    7
 10
38
 20
376.89999999999998
 40
14
 41
1
 50
0
  1
Ｐ－２５Ｒ(Ｂ)
  0
LINE
  8
_0-0__
  6
CONTINUOUS
 62
   18
 10
214.4499999999997
 20
109.99999999999999
 11
239.45000000000016
 21
109.99999999999999
  0
LINE
  8
_0-0__
  6
DASHED2
 62
    7
 10
525.45000000000016
 20
285
 11
68.549999999999955
 21
285
  0
LINE
  8
_0-0__
  6
CONTINUOUS
 62
   18
 10
239.45000000000016
 20
284.99999999999989
 11
214.4499999999997
 21
284.99999999999989
  0
LINE
  8
_0-0__
  6
CONTINUOUS
 62
   18
 10
239.45000000000016
 20
109.99999999999999
 11
239.45000000000016
 21
284.99999999999989
  0
LINE
  8
_0-0__
  6
CONTINUOUS
 62
   18
 10
214.4499999999997
 20
284.99999999999989
 11
214.4499999999997
 21
109.99999999999999
  0
LINE
  8
_0-0__
  6
CONTINUOUS
 62
    5
 10
237.24999999999994
 20
173.5
 11
215.14999999999958
 21
173.5
  0
LINE
  8
_0-0__
  6
CONTINUOUS
 62
    5
 10
237.24999999999994
 20
176.5
 11
216.64999999999958
 21
176.5
  0
LINE
  8
_0-0__
  6
CONTINUOUS
 62
    5
 10
237.24999999999994
 20
200.5
 11
216.64999999999958
 21
200.5
  0
LINE
  8
_0-0__
  6
CONTINUOUS
 62
    5
 10
237.24999999999994
 20
197.5
 11
216.64999999999958
 21
197.5
  0
LINE
  8
_0-0__
  6
CONTINUOUS
 62
    5
 10
237.24999999999994
 20
194.5
 11
216.64999999999958
 21
194.5
  0
LINE
  8
_0-0__
  6
CONTINUOUS
 62
    5
 10
237.24999999999994
 20
191.5
 11
216.64999999999958
 21
191.5
  0
LINE
  8
_0-0__
  6
CONTINUOUS
 62
    5
 10
237.24999999999994
 20
188.5
 11
216.64999999999958
 21
188.5
  0
LINE
  8
_0-0__
  6
CONTINUOUS
 62
    5
 10
237.24999999999994
 20
185.5
 11
216.64999999999958
 21
185.5
  0
LINE
  8
_0-0__
  6
CONTINUOUS
 62
    5
 10
237.24999999999994
 20
182.5
 11
216.64999999999958
 21
182.5
  0
LINE
  8
_0-0__
  6
CONTINUOUS
 62
    5
 10
237.24999999999994
 20
179.5
 11
216.64999999999958
 21
179.5
  0
LINE
  8
_0-0__
  6
CONTINUOUS
 62
    5
 10
237.24999999999994
 20
206.5
 11
216.64999999999958
 21
206.5
  0
LINE
  8
_0-0__
  6
CONTINUOUS
 62
    5
 10
237.24999999999994
 20
203.5
 11
216.64999999999958
 21
203.5
  0
LINE
  8
_0-0__
  6
CONTINUOUS
 62
    5
 10
237.24999999999994
 20
212.5
 11
216.64999999999958
 21
212.5
  0
LINE
  8
_0-0__
  6
CONTINUOUS
 62
    5
 10
237.24999999999994
 20
209.5
 11
216.64999999999958
 21
209.5
  0
LINE
  8
_0-0__
  6
CONTINUOUS
 62
    5
 10
237.24999999999994
 20
215.5
 11
216.64999999999958
 21
215.5
  0
LINE
  8
_0-0__
  6
CONTINUOUS
 62
    5
 10
237.24999999999994
 20
218.5
 11
216.64999999999958
 21
218.5
  0
ARC
  8
_0-0__
  6
CONTINUOUS
 62
    5
 10
237.24999999999994
 20
175
 40
1.5
 50
270
 51
90
  0
ARC
  8
_0-0__
  6
CONTINUOUS
 62
    5
 10
237.24999999999994
 20
181
 40
1.5
 50
270
 51
90
  0
ARC
  8
_0-0__
  6
CONTINUOUS
 62
    5
 10
237.24999999999994
 20
187
 40
1.5
 50
270
 51
90
  0
ARC
  8
_0-0__
  6
CONTINUOUS
 62
    5
 10
237.24999999999994
 20
193
 40
1.5
 50
270
 51
90
  0
ARC
  8
_0-0__
  6
CONTINUOUS
 62
    5
 10
237.24999999999994
 20
199
 40
1.5
 50
270
 51
90
  0
ARC
  8
_0-0__
  6
CONTINUOUS
 62
    5
 10
237.24999999999994
 20
205
 40
1.5
 50
270
 51
90
  0
ARC
  8
_0-0__
  6
CONTINUOUS
 62
    5
 10
237.24999999999994
 20
211
 40
1.5
 50
270
 51
90
  0
ARC
  8
_0-0__
  6
CONTINUOUS
 62
    5
 10
237.24999999999994
 20
217
 40
1.5
 50
270
 51
90
  0
ARC
  8
_0-0__
  6
CONTINUOUS
 62
    5
 10
216.64999999999958
 20
178
 40
1.5
 50
90
 51
270
  0
ARC
  8
_0-0__
  6
CONTINUOUS
 62
    5
 10
216.64999999999958
 20
184
 40
1.5
 50
90
 51
270
  0
ARC
  8
_0-0__
  6
CONTINUOUS
 62
    5
 10
216.64999999999958
 20
190
 40
1.5
 50
90
 51
270
  0
ARC
  8
_0-0__
  6
CONTINUOUS
 62
    5
 10
216.64999999999958
 20
196
 40
1.5
 50
90
 51
270
  0
ARC
  8
_0-0__
  6
CONTINUOUS
 62
    5
 10
216.64999999999958
 20
202
 40
1.5
 50
90
 51
270
  0
ARC
  8
_0-0__
  6
CONTINUOUS
 62
    5
 10
216.64999999999958
 20
208
 40
1.5
 50
90
 51
270
  0
ARC
  8
_0-0__
  6
CONTINUOUS
 62
    5
 10
216.64999999999958
 20
214
 40
1.5
 50
90
 51
270
  0
ARC
  8
_0-0__
  6
CONTINUOUS
 62
    5
 10
216.64999999999958
 20
220
 40
1.5
 50
90
 51
270
  0
LINE
  8
_0-0__
  6
CONTINUOUS
 62
    5
 10
238.74999999999994
 20
221.5
 11
216.64999999999958
 21
221.5
  0
LINE
  8
_0-0__
  6
CONTINUOUS
 62
   18
 10
239.24999999999983
 20
222.29999999999995
 11
239.24999999999983
 21
172.70000000000005
  0
LINE
  8
_0-0__
  6
CONTINUOUS
 62
   18
 10
239.24999999999983
 20
172.70000000000005
 11
214.64999999999969
 21
172.70000000000005
  0
LINE
  8
_0-0__
  6
CONTINUOUS
 62
   18
 10
214.64999999999969
 20
222.29999999999995
 11
214.64999999999969
 21
172.70000000000005
  0
LINE
  8
_0-0__
  6
CONTINUOUS
 62
   18
 10
239.24999999999983
 20
222.29999999999995
 11
214.64999999999969
 21
222.29999999999995
  0
LINE
  8
_0-0__
  6
CONTINUOUS
 62
   18
 10
239.44999999999982
 20
172.5
 11
214.4499999999997
 21
172.5
  0
LINE
  8
_0-0__
  6
CONTINUOUS
 62
   18
 10
239.44999999999982
 20
222.5
 11
214.4499999999997
 21
222.5
  0
LINE
  8
_0-0__
  6
CONTINUOUS
 62
   18
 10
214.4499999999997
 20
172.5
 11
214.4499999999997
 21
222.5
  0
LINE
  8
_0-0__
  6
CONTINUOUS
 62
   18
 10
239.44999999999982
 20
222.5
 11
239.44999999999982
 21
172.5
  0
LINE
  8
_0-0__
  6
CONTINUOUS
 62
    7
 10
279.44999587600319
 20
172.49999948450039
 11
242.44999752560204
 21
172.49999948450039
  0
LINE
  8
_0-0__
  6
CONTINUOUS
 62
    7
 10
242.38175362251923
 20
172.50233160482873
 11
242.44999752560204
 21
172.49999948450039
  0
LINE
  8
_0-0__
  6
CONTINUOUS
 62
    7
 10
242.31383139120589
 20
172.50931559382258
 11
242.38175362251923
 21
172.50233160482873
  0
LINE
  8
_0-0__
  6
CONTINUOUS
 62
    7
 10
242.24654013144027
 20
172.52091742850638
 11
242.31383139120589
 21
172.50931559382258
  0
LINE
  8
_0-0__
  6
CONTINUOUS
 62
    7
 10
242.18020151499184
 20
172.53708452791778
 11
242.24654013144027
 21
172.52091742850638
  0
LINE
  8
_0-0__
  6
CONTINUOUS
 62
    7
 10
242.11511246964767
 20
172.55773956711226
 11
242.18020151499184
 21
172.53708452791778
  0
LINE
  8
_0-0__
  6
CONTINUOUS
 62
    7
 10
242.05159466717714
 20
172.58278975615627
 11
242.11511246964767
 21
172.55773956711226
  0
LINE
  8
_0-0__
  6
CONTINUOUS
 62
    7
 10
241.98993266337652
 20
172.61211756113414
 11
242.05159466717714
 21
172.58278975615627
  0
LINE
  8
_0-0__
  6
CONTINUOUS
 62
    7
 10
241.93041101404162
 20
172.64558379714555
 11
241.98993266337652
 21
172.61211756113414
  0
LINE
  8
_0-0__
  6
CONTINUOUS
 62
    7
 10
241.87331427496849
 20
172.68303381430138
 11
241.93041101404162
 21
172.64558379714555
  0
LINE
  8
_0-0__
  6
CONTINUOUS
 62
    7
 10
241.81891462996225
 20
172.724291311728
 11
241.87331427496849
 21
172.68303381430138
  0
LINE
  8
_0-0__
  6
CONTINUOUS
 62
    7
 10
241.76744714685412
 20
172.76916761656065
 11
241.81891462996225
 21
172.724291311728
  0
LINE
  8
_0-0__
  6
CONTINUOUS
 62
    7
 10
241.71915926546683
 20
172.81744931195232
 11
241.76744714685412
 21
172.76916761656065
  0
LINE
  8
_0-0__
  6
CONTINUOUS
 62
    7
 10
241.67428605363204
 20
172.86891370206268
 11
241.71915926546683
 21
172.81744931195232
  0
LINE
  8
_0-0__
  6
CONTINUOUS
 62
    7
 10
241.63302546320756
 20
172.92332262606232
 11
241.67428605363204
 21
172.86891370206268
  0
LINE
  8
_0-0__
  6
CONTINUOUS
 62
    7
 10
241.59557544605173
 20
172.98041936513545
 11
241.63302546320756
 21
172.92332262606232
  0
LINE
  8
_0-0__
  6
CONTINUOUS
 62
    7
 10
241.56210921004038
 20
173.03993792147247
 11
241.59557544605173
 21
172.98041936513545
  0
LINE
  8
_0-0__
  6
CONTINUOUS
 62
    7
 10
241.53278759105808
 20
173.10159992527321
 11
241.56210921004038
 21
173.03993792147247
  0
LINE
  8
_0-0__
  6
CONTINUOUS
 62
    7
 10
241.5077343090162
 20
173.16512082074138
 11
241.53278759105808
 21
173.10159992527321
  0
LINE
  8
_0-0__
  6
CONTINUOUS
 62
    7
 10
241.48708545581735
 20
173.23020368009003
 11
241.5077343090162
 21
173.16512082074138
  0
LINE
  8
_0-0__
  6
CONTINUOUS
 62
    7
 10
241.47091526340819
 20
173.29654538953628
 11
241.48708545581735
 21
173.23020368009003
  0
LINE
  8
_0-0__
  6
CONTINUOUS
 62
    7
 10
241.45931033572663
 20
173.36383355630409
 11
241.47091526340819
 21
173.29654538953628
  0
LINE
  8
_0-0__
  6
CONTINUOUS
 62
    7
 10
241.45233253272829
 20
173.43175888061523
 11
241.45931033572663
 21
173.36383355630409
  0
LINE
  8
_0-0__
  6
CONTINUOUS
 62
    7
 10
241.44999422640433
 20
173.49999969070024
 11
241.45233253272829
 21
173.43175888061523
  0
LINE
  8
_0-0__
  6
CONTINUOUS
 62
    7
 10
241.44999422640433
 20
173.49999969070024
 11
241.44999422640433
 21
221.50000030929976
  0
LINE
  8
_0-0__
  6
CONTINUOUS
 62
    7
 10
241.44999422640433
 20
221.50000030929976
 11
241.45233253272829
 21
221.5682426658837
  0
LINE
  8
_0-0__
  6
CONTINUOUS
 62
    7
 10
241.45233253272829
 20
221.5682426658837
 11
241.45931033572663
 21
221.63616644369591
  0
LINE
  8
_0-0__
  6
CONTINUOUS
 62
    7
 10
241.45931033572663
 20
221.63616644369591
 11
241.47091526340819
 21
221.70345461046378
  0
LINE
  8
_0-0__
  6
CONTINUOUS
 62
    7
 10
241.47091526340819
 20
221.70345461046378
 11
241.48708545581735
 21
221.76979477341109
  0
LINE
  8
_0-0__
  6
CONTINUOUS
 62
    7
 10
241.48708545581735
 20
221.76979477341109
 11
241.50774668100746
 21
221.83487763275974
  0
LINE
  8
_0-0__
  6
CONTINUOUS
 62
    7
 10
241.50774668100746
 20
221.83487763275974
 11
241.53278759105808
 21
221.89839852822791
  0
LINE
  8
_0-0__
  6
CONTINUOUS
 62
    7
 10
241.53278759105808
 20
221.89839852822791
 11
241.56212158203141
 21
221.96006053202865
  0
LINE
  8
_0-0__
  6
CONTINUOUS
 62
    7
 10
241.56212158203141
 20
221.96006053202865
 11
241.59558781804287
 21
222.01957908836567
  0
LINE
  8
_0-0__
  6
CONTINUOUS
 62
    7
 10
241.59558781804287
 20
222.01957908836567
 11
241.63303783519871
 21
222.07667582743881
  0
LINE
  8
_0-0__
  6
CONTINUOUS
 62
    7
 10
241.63303783519871
 20
222.07667582743881
 11
241.67428605363204
 21
222.13108165844068
  0
LINE
  8
_0-0__
  6
CONTINUOUS
 62
    7
 10
241.67428605363204
 20
222.13108165844068
 11
241.71917163745798
 21
222.18254759504993
  0
LINE
  8
_0-0__
  6
CONTINUOUS
 62
    7
 10
241.71917163745798
 20
222.18254759504993
 11
241.76744714685412
 21
222.23082929044159
  0
LINE
  8
_0-0__
  6
CONTINUOUS
 62
    7
 10
241.76744714685412
 20
222.23082929044159
 11
241.81891462996225
 21
222.27570404877537
  0
LINE
  8
_0-0__
  6
CONTINUOUS
 62
    7
 10
241.81891462996225
 20
222.27570404877537
 11
241.87332664695975
 21
222.31696309270086
  0
LINE
  8
_0-0__
  6
CONTINUOUS
 62
    7
 10
241.87332664695975
 20
222.31696309270086
 11
241.93041101404162
 21
222.35441310985669
  0
LINE
  8
_0-0__
  6
CONTINUOUS
 62
    7
 10
241.93041101404162
 20
222.35441310985669
 11
241.98993266337652
 21
222.3878793458681
  0
LINE
  8
_0-0__
  6
CONTINUOUS
 62
    7
 10
241.98993266337652
 20
222.3878793458681
 11
242.05159466717714
 21
222.41720560434703
  0
LINE
  8
_0-0__
  6
CONTINUOUS
 62
    7
 10
242.05159466717714
 20
222.41720560434703
 11
242.1151248416387
 21
222.4422557933911
  0
LINE
  8
_0-0__
  6
CONTINUOUS
 62
    7
 10
242.1151248416387
 20
222.4422557933911
 11
242.18020151499184
 21
222.46291237908446
  0
LINE
  8
_0-0__
  6
CONTINUOUS
 62
    7
 10
242.18020151499184
 20
222.46291237908446
 11
242.24654013144027
 21
222.47908102499474
  0
LINE
  8
_0-0__
  6
CONTINUOUS
 62
    7
 10
242.24654013144027
 20
222.47908102499474
 11
242.31383139120589
 21
222.49068440617742
  0
LINE
  8
_0-0__
  6
CONTINUOUS
 62
    7
 10
242.31383139120589
 20
222.49068440617742
 11
242.38175362251923
 21
222.49766839517127
  0
LINE
  8
_0-0__
  6
CONTINUOUS
 62
    7
 10
242.38175362251923
 20
222.49766839517127
 11
242.44999752560204
 21
222.50000051549961
  0
LINE
  8
_0-0__
  6
CONTINUOUS
 62
    7
 10
242.44999752560204
 20
222.50000051549961
 11
279.44999587600319
 21
222.50000051549961
  0
LINE
  8
_0-0__
  6
CONTINUOUS
 62
    7
 10
242.38458680848839
 20
252.50214086996544
 11
242.44999752560204
 21
252.50000051549961
  0
LINE
  8
_0-0__
  6
CONTINUOUS
 62
    7
 10
242.31947301916193
 20
252.50855574736721
 11
242.38458680848839
 21
252.50214086996544
  0
LINE
  8
_0-0__
  6
CONTINUOUS
 62
    7
 10
242.25490359744538
 20
252.51921421772727
 11
242.31947301916193
 21
252.50855574736721
  0
LINE
  8
_0-0__
  6
CONTINUOUS
 62
    7
 10
242.19117547112558
 20
252.53407297907648
 11
242.25490359744538
 21
252.51921421772727
  0
LINE
  8
_0-0__
  6
CONTINUOUS
 62
    7
 10
242.12856082400788
 20
252.5530701714593
 11
242.19117547112558
 21
252.53407297907648
  0
LINE
  8
_0-0__
  6
CONTINUOUS
 62
    7
 10
242.06730709591454
 20
252.57611919093779
 11
242.12856082400788
 21
252.5530701714593
  0
LINE
  8
_0-0__
  6
CONTINUOUS
 62
    7
 10
242.00771121463288
 20
252.60312724757841
 11
242.06730709591454
 21
252.57611919093779
  0
LINE
  8
_0-0__
  6
CONTINUOUS
 62
    7
 10
241.94999587600319
 20
252.63397062146987
 11
242.00771121463288
 21
252.60312724757841
  0
LINE
  8
_0-0__
  6
CONTINUOUS
 62
    7
 10
241.89442089183933
 20
252.66852559270086
 11
241.94999587600319
 21
252.63397062146987
  0
LINE
  8
_0-0__
  6
CONTINUOUS
 62
    7
 10
241.84123370196392
 20
252.70664369737784
 11
241.89442089183933
 21
252.66852559270086
  0
LINE
  8
_0-0__
  6
CONTINUOUS
 62
    7
 10
241.79064463022621
 20
252.74815791362045
 11
241.84123370196392
 21
252.70664369737784
  0
LINE
  8
_0-0__
  6
CONTINUOUS
 62
    7
 10
241.74288874445756
 20
252.79288884755726
 11
241.79064463022621
 21
252.74815791362045
  0
LINE
  8
_0-0__
  6
CONTINUOUS
 62
    7
 10
241.69815162452517
 20
252.84065091932143
 11
241.74288874445756
 21
252.79288884755726
  0
LINE
  8
_0-0__
  6
CONTINUOUS
 62
    7
 10
241.65664359427808
 20
252.89123380506362
 11
241.69815162452517
 21
252.84065091932143
  0
LINE
  8
_0-0__
  6
CONTINUOUS
 62
    7
 10
241.61852548960121
 20
252.94442718093461
 11
241.65664359427808
 21
252.89123380506362
  0
LINE
  8
_0-0__
  6
CONTINUOUS
 62
    7
 10
241.58397051837017
 20
252.99999597910289
 11
241.61852548960121
 21
252.94442718093461
  0
LINE
  8
_0-0__
  6
CONTINUOUS
 62
    7
 10
241.55311477248756
 20
253.05771131773253
 11
241.58397051837017
 21
252.99999597910289
  0
LINE
  8
_0-0__
  6
CONTINUOUS
 62
    7
 10
241.52611908783808
 20
253.11731338500977
 11
241.55311477248756
 21
253.05771131773253
  0
LINE
  8
_0-0__
  6
CONTINUOUS
 62
    7
 10
241.5030576963685
 20
253.17856092710753
 11
241.52611908783808
 21
253.11731338500977
  0
LINE
  8
_0-0__
  6
CONTINUOUS
 62
    7
 10
241.4840666899812
 20
253.24118176022091
 11
241.5030576963685
 21
253.17856092710753
  0
LINE
  8
_0-0__
  6
CONTINUOUS
 62
    7
 10
241.46920792863204
 20
253.3049098865406
 11
241.4840666899812
 21
253.24118176022091
  0
LINE
  8
_0-0__
  6
CONTINUOUS
 62
    7
 10
241.45855564426756
 20
253.3694731222617
 11
241.46920792863204
 21
253.3049098865406
  0
LINE
  8
_0-0__
  6
CONTINUOUS
 62
    7
 10
241.45213458087017
 20
253.43459928357925
 11
241.45855564426756
 21
253.3694731222617
  0
LINE
  8
_0-0__
  6
CONTINUOUS
 62
    7
 10
241.44999422640433
 20
253.49999762870169
 11
241.45213458087017
 21
253.43459928357925
  0
LINE
  8
_0-0__
  6
CONTINUOUS
 62
    7
 10
279.44926592852642
 20
230.65180340328737
 11
279.44926592852642
 21
222.50000051549961
  0
LINE
  8
_0-0__
  6
CONTINUOUS
 62
    7
 10
279.44999587600319
 20
172.49999948450039
 11
279.44999587600319
 21
164.30001078425227
  0
ARC
  8
_0-0__
  6
CONTINUOUS
 62
    7
 10
246.94816086136518
 20
245.22271153793656
 40
0.5000000064437454
 50
271.73977661132812
 51
0.013565063476568
  0
LINE
  8
_0-0__
  6
CONTINUOUS
 62
    7
 10
246.93783024877018
 20
225.27829477009448
 11
241.45285025840383
 21
225.44229788453708
  0
LINE
  8
_0-0__
  6
CONTINUOUS
 62
    7
 10
279.44999088505341
 20
230.6968309820877
 11
277.44999356565148
 21
230.6968309820877
  0
LINE
  8
_0-0__
  6
CONTINUOUS
 62
    7
 10
277.44999356565148
 20
244.2968226516137
 11
279.44999088505341
 21
244.2968226516137
  0
LINE
  8
_0-0__
  6
CONTINUOUS
 62
    7
 10
279.44999088505341
 20
244.2968226516137
 11
279.44999088505341
 21
244.35719796833666
  0
LINE
  8
_0-0__
  6
CONTINUOUS
 62
    7
 10
352.4482491149019
 20
244.87734740549354
 11
352.45173183040555
 21
230.17524020796401
  0
LINE
  8
_0-0__
  6
CONTINUOUS
 62
    7
 10
350.79967201760195
 20
246.47623549341057
 11
281.46342727982227
 21
244.37020711701172
  0
LINE
  8
_0-0__
  6
CONTINUOUS
 62
    7
 10
279.44838252620633
 20
244.30899669088734
 11
243.04863916254232
 21
243.20338607538906
  0
LINE
  8
_0-0__
  6
CONTINUOUS
 62
    7
 10
350.8039140640613
 20
228.57557887060125
 11
281.46667802049205
 21
230.64874723855417
  0
LINE
  8
_0-0__
  6
CONTINUOUS
 62
    7
 10
279.4516023368983
 20
230.70899883536583
 11
243.05134244260461
 21
231.79736289522646
  0
LINE
  8
_0-0__
  6
CONTINUOUS
 62
    7
 10
350.3366672609838
 20
230.19025980519791
 11
242.48108644136414
 21
233.41512445561494
  0
LINE
  8
_0-0__
  6
CONTINUOUS
 62
    7
 10
350.8483712676944
 20
244.36167662912635
 11
350.8516096363731
 21
230.69015629287213
  0
LINE
  8
_0-0__
  6
CONTINUOUS
 62
    7
 10
350.33319073147578
 20
244.86132567697791
 11
242.479150224752
 21
241.58535233119562
  0
LINE
  8
_0-0__
  6
CONTINUOUS
 62
    7
 10
279.44643703060086
 20
252.50899776312656
 11
279.44764329973617
 21
244.35719796833666
  0
LINE
  8
_0-0__
  6
CONTINUOUS
 62
    7
 10
279.45088785441044
 20
230.66080374391203
 11
279.45354783250377
 21
222.50899776312656
  0
LINE
  8
_0-0__
  6
CONTINUOUS
 62
    7
 10
281.05355867861601
 20
222.46116145941562
 11
281.05101004844289
 21
230.1458876590039
  0
LINE
  8
_0-0__
  6
CONTINUOUS
 62
    7
 10
279.44643703060086
 20
252.50899776312656
 11
281.04642622572857
 21
252.55759494429213
  0
LINE
  8
_0-0__
  6
CONTINUOUS
 62
    7
 10
281.04642622572857
 20
252.55759494429213
 11
281.04752114694378
 21
244.87286874470385
  0
LINE
  8
_0-0__
  6
CONTINUOUS
 62
    7
 10
281.05355867861601
 20
222.46116145941562
 11
279.45354783250377
 21
222.50899776312656
  0
LINE
  8
_0-0__
  6
CONTINUOUS
 62
    7
 10
246.96334129448383
 20
244.72293877017364
 11
243.04831130477737
 21
244.60402537741078
  0
LINE
  8
_0-0__
  6
CONTINUOUS
 62
    7
 10
247.44721605364242
 20
249.2246423933525
 11
247.44816251096398
 21
245.22282907185229
  0
LINE
  8
_0-0__
  6
CONTINUOUS
 62
    7
 10
243.04831130477737
 20
244.60402537741078
 11
243.04863916254232
 21
243.20338607538906
  0
LINE
  8
_0-0__
  6
CONTINUOUS
 62
    7
 10
246.96676833602737
 20
230.27966599911156
 11
243.05167648636518
 21
230.39672359320468
  0
LINE
  8
_0-0__
  6
CONTINUOUS
 62
    7
 10
247.4527710776606
 20
225.77819125776864
 11
247.45182462033898
 21
229.7800045792689
  0
LINE
  8
_0-0__
  6
CONTINUOUS
 62
    7
 10
243.05167648636518
 20
230.39672359320468
 11
243.05134244260461
 21
231.79736289522646
  0
ARC
  8
_0-0__
  6
CONTINUOUS
 62
    7
 10
350.34837116459443
 20
244.36155909521062
 40
0.5000000064437454
 50
0.0135650634765625
 51
91.739776611328111
  0
ARC
  8
_0-0__
  6
CONTINUOUS
 62
    7
 10
350.35160953327312
 20
230.6900387589564
 40
0.5000000064437454
 50
268.28738403320312
 51
0.0135650634765807
  0
ARC
  8
_0-0__
  6
CONTINUOUS
 62
    7
 10
350.84824909428193
 20
244.87697005976406
 40
1.6000000206199854
 50
0.0135650634765625
 51
91.739776611328111
  0
ARC
  8
_0-0__
  6
CONTINUOUS
 62
    7
 10
350.85173180978558
 20
230.17486286223448
 40
1.6000000206199854
 50
268.28738403320312
 51
0.0135650634765807
  0
ARC
  8
_0-0__
  6
CONTINUOUS
 62
    7
 10
281.04764486685502
 20
244.3575753140662
 40
1.6000000206199854
 50
180.01358032226562
 51
271.73977661132812
  0
ARC
  8
_0-0__
  6
CONTINUOUS
 62
    7
 10
281.05088942152935
 20
230.66118108964156
 40
1.6000000206199854
 50
88.287368774414063
 51
180.01358032226562
  0
ARC
  8
_0-0__
  6
CONTINUOUS
 62
    7
 10
281.54752279654252
 20
244.87299246461515
 40
0.5000000064437454
 50
180.01358032226562
 51
271.73977661132812
  0
ARC
  8
_0-0__
  6
CONTINUOUS
 62
    7
 10
281.55101169804169
 20
230.14600519291963
 40
0.5000000064437454
 50
88.287368774414063
 51
180.01358032226562
  0
ARC
  8
_0-0__
  6
CONTINUOUS
 62
    7
 10
246.94721440404362
 20
249.22452485943677
 40
0.5000000064437454
 50
0.0135650634765625
 51
91.739776611328111
  0
ARC
  8
_0-0__
  6
CONTINUOUS
 62
    7
 10
246.95276942806174
 20
225.77807372385291
 40
0.5000000064437454
 50
268.28738403320312
 51
0.0135650634765807
  0
ARC
  8
_0-0__
  6
CONTINUOUS
 62
    7
 10
246.95182297074018
 20
229.77988704535312
 40
0.5000000064437454
 50
0.0135650634765625
 51
88.287368774414063
  0
ARC
  8
_0-0__
  6
CONTINUOUS
 62
    7
 10
242.44878935851466
 20
242.58489168072583
 40
1.0000000128874909
 50
180.01358032226562
 51
271.73977661132812
  0
ARC
  8
_0-0__
  6
CONTINUOUS
 62
    7
 10
242.45119571078976
 20
232.41557273409364
 40
1.0000000128874909
 50
88.287368774414063
 51
180.01358032226562
  0
LINE
  8
_0-0__
  6
CENTER2
 62
    6
 10
231.14527036602186
 20
237.49755280183763
 11
364.25244912634906
 21
237.52909026600844
  0
LINE
  8
_0-0__
  6
CONTINUOUS
 62
    7
 10
241.44713819304633
 20
249.55769650987691
 11
241.45285025840383
 21
225.44229788453708
  0
LINE
  8
_0-0__
  6
CONTINUOUS
 62
    7
 10
246.93203397092492
 20
249.72429762719963
 11
241.44713819304633
 21
249.55769650987691
  0
ARC
  8
_0-0__
  6
CONTINUOUS
 62
    7
 10
246.94816086136518
 20
165.22272751842513
 40
0.5000000064437454
 50
271.73977661132812
 51
0.013565063476568
  0
LINE
  8
_0-0__
  6
CONTINUOUS
 62
    7
 10
246.93783024877018
 20
145.27831075058305
 11
241.45285025840383
 21
145.44231386502565
  0
LINE
  8
_0-0__
  6
CONTINUOUS
 62
    7
 10
279.44999088505341
 20
150.69684696257627
 11
277.44999356565148
 21
150.69684696257627
  0
LINE
  8
_0-0__
  6
CONTINUOUS
 62
    7
 10
277.44999356565148
 20
164.29683863210232
 11
279.44999088505341
 21
164.29683863210232
  0
LINE
  8
_0-0__
  6
CONTINUOUS
 62
    7
 10
279.44999088505341
 20
164.29683863210232
 11
279.44999088505341
 21
164.35721394882523
  0
LINE
  8
_0-0__
  6
CONTINUOUS
 62
    7
 10
352.4482491149019
 20
164.87736338598211
 11
352.45173183040555
 21
150.17525618845264
  0
LINE
  8
_0-0__
  6
CONTINUOUS
 62
    7
 10
350.79967201760195
 20
166.4762514738992
 11
281.46342727982227
 21
164.37022309750034
  0
LINE
  8
_0-0__
  6
CONTINUOUS
 62
    7
 10
279.44838252620633
 20
164.30901267137597
 11
243.04863916254232
 21
163.20340205587763
  0
LINE
  8
_0-0__
  6
CONTINUOUS
 62
    7
 10
350.8039140640613
 20
148.57559485108982
 11
281.46667802049205
 21
150.64876321904273
  0
LINE
  8
_0-0__
  6
CONTINUOUS
 62
    7
 10
279.4516023368983
 20
150.7090148158544
 11
243.05134244260461
 21
151.79737887571503
  0
LINE
  8
_0-0__
  6
CONTINUOUS
 62
    7
 10
350.3366672609838
 20
150.19027578568654
 11
242.48108644136414
 21
153.41514043610357
  0
LINE
  8
_0-0__
  6
CONTINUOUS
 62
    7
 10
350.8483712676944
 20
164.36169260961492
 11
350.8516096363731
 21
150.69017227336076
  0
LINE
  8
_0-0__
  6
CONTINUOUS
 62
    7
 10
350.33319073147578
 20
164.86134165746648
 11
242.479150224752
 21
161.58536831168419
  0
LINE
  8
_0-0__
  6
CONTINUOUS
 62
    7
 10
279.44643703060086
 20
172.50901374361513
 11
279.44764329973617
 21
164.35721394882523
  0
LINE
  8
_0-0__
  6
CONTINUOUS
 62
    7
 10
279.45088785441044
 20
150.66081972440065
 11
279.45354783250377
 21
142.50901374361513
  0
LINE
  8
_0-0__
  6
CONTINUOUS
 62
    7
 10
281.05355867861601
 20
142.46117743990419
 11
281.05101004844289
 21
150.14590363949253
  0
LINE
  8
_0-0__
  6
CONTINUOUS
 62
    7
 10
279.44643703060086
 20
172.50901374361513
 11
281.04642622572857
 21
172.55761092478076
  0
LINE
  8
_0-0__
  6
CONTINUOUS
 62
    7
 10
281.04642622572857
 20
172.55761092478076
 11
281.04752114694378
 21
164.87288472519242
  0
LINE
  8
_0-0__
  6
CONTINUOUS
 62
    7
 10
281.05355867861601
 20
142.46117743990419
 11
279.45354783250377
 21
142.50901374361513
  0
LINE
  8
_0-0__
  6
CONTINUOUS
 62
    7
 10
246.96334129448383
 20
164.72295475066221
 11
243.04831130477737
 21
164.6040413578994
  0
LINE
  8
_0-0__
  6
CONTINUOUS
 62
    7
 10
247.44721605364242
 20
169.22465837384107
 11
247.44816251096398
 21
165.22284505234086
  0
LINE
  8
_0-0__
  6
CONTINUOUS
 62
    7
 10
243.04831130477737
 20
164.6040413578994
 11
243.04863916254232
 21
163.20340205587763
  0
LINE
  8
_0-0__
  6
CONTINUOUS
 62
    7
 10
246.96676833602737
 20
150.27968197960018
 11
243.05167648636518
 21
150.39673957369325
  0
LINE
  8
_0-0__
  6
CONTINUOUS
 62
    7
 10
247.4527710776606
 20
145.77820723825727
 11
247.45182462033898
 21
149.78002055975753
  0
LINE
  8
_0-0__
  6
CONTINUOUS
 62
    7
 10
243.05167648636518
 20
150.39673957369325
 11
243.05134244260461
 21
151.79737887571503
  0
ARC
  8
_0-0__
  6
CONTINUOUS
 62
    7
 10
350.34837116459443
 20
164.36157507569919
 40
0.5000000064437454
 50
0.0135650634765625
 51
91.739776611328111
  0
ARC
  8
_0-0__
  6
CONTINUOUS
 62
    7
 10
350.35160953327312
 20
150.69005473944503
 40
0.5000000064437454
 50
268.28738403320312
 51
0.0135650634765807
  0
ARC
  8
_0-0__
  6
CONTINUOUS
 62
    7
 10
350.84824909428193
 20
164.87698604025263
 40
1.6000000206199854
 50
0.0135650634765625
 51
91.739776611328111
  0
ARC
  8
_0-0__
  6
CONTINUOUS
 62
    7
 10
350.85173180978558
 20
150.17487884272305
 40
1.6000000206199854
 50
268.28738403320312
 51
0.0135650634765807
  0
ARC
  8
_0-0__
  6
CONTINUOUS
 62
    7
 10
281.04764486685502
 20
164.35759129455482
 40
1.6000000206199854
 50
180.01358032226562
 51
271.73977661132812
  0
ARC
  8
_0-0__
  6
CONTINUOUS
 62
    7
 10
281.05088942152935
 20
150.66119707013013
 40
1.6000000206199854
 50
88.287368774414063
 51
180.01358032226562
  0
ARC
  8
_0-0__
  6
CONTINUOUS
 62
    7
 10
281.54752279654252
 20
164.87300844510378
 40
0.5000000064437454
 50
180.01358032226562
 51
271.73977661132812
  0
ARC
  8
_0-0__
  6
CONTINUOUS
 62
    7
 10
281.55101169804169
 20
150.14602117340826
 40
0.5000000064437454
 50
88.287368774414063
 51
180.01358032226562
  0
ARC
  8
_0-0__
  6
CONTINUOUS
 62
    7
 10
246.94721440404362
 20
169.22454083992534
 40
0.5000000064437454
 50
0.0135650634765625
 51
91.739776611328111
  0
ARC
  8
_0-0__
  6
CONTINUOUS
 62
    7
 10
246.95276942806174
 20
145.77808970434148
 40
0.5000000064437454
 50
268.28738403320312
 51
0.0135650634765807
  0
ARC
  8
_0-0__
  6
CONTINUOUS
 62
    7
 10
246.95182297074018
 20
149.77990302584169
 40
0.5000000064437454
 50
0.0135650634765625
 51
88.287368774414063
  0
ARC
  8
_0-0__
  6
CONTINUOUS
 62
    7
 10
242.44878935851466
 20
162.5849076612144
 40
1.0000000128874909
 50
180.01358032226562
 51
271.73977661132812
  0
ARC
  8
_0-0__
  6
CONTINUOUS
 62
    7
 10
242.45119571078976
 20
152.41558871458221
 40
1.0000000128874909
 50
88.287368774414063
 51
180.01358032226562
  0
LINE
  8
_0-0__
  6
CENTER2
 62
    6
 10
231.14527036602186
 20
157.4975687823262
 11
364.25244912634906
 21
157.52910624649701
  0
LINE
  8
_0-0__
  6
CONTINUOUS
 62
    7
 10
241.44713819304633
 20
169.55771249036553
 11
241.45285025840383
 21
145.44231386502565
  0
LINE
  8
_0-0__
  6
CONTINUOUS
 62
    7
 10
246.93203397092492
 20
169.72431360768826
 11
241.44713819304633
 21
169.55771249036553
  0
LINE
  8
_0-0__
  6
CONTINUOUS
 62
    7
 10
349.43282219641247
 20
289.20000000000005
 11
333.43282219641293
 21
289.20000000000005
  0
LINE
  8
_0-0__
  6
CONTINUOUS
 62
    7
 10
331.43282219641247
 20
289.99999999999994
 11
329.4328221964127
 21
310
  0
LINE
  8
_0-0__
  6
CONTINUOUS
 62
    7
 10
351.43282219641293
 20
289.99999999999994
 11
331.43282219641247
 21
289.99999999999994
  0
LINE
  8
_0-0__
  6
CONTINUOUS
 62
    7
 10
351.43282219641293
 20
289.99999999999994
 11
353.4328221964127
 21
310
  0
LINE
  8
_0-0__
  6
CONTINUOUS
 62
    7
 10
349.43282219641247
 20
289.99999999999994
 11
349.43282219641247
 21
289.20000000000005
  0
LINE
  8
_0-0__
  6
CONTINUOUS
 62
    7
 10
333.43282219641293
 20
289.99999999999994
 11
333.43282219641293
 21
289.20000000000005
  0
LINE
  8
_0-0__
  6
CONTINUOUS
 62
    7
 10
349.43282219641247
 20
130.79999999999995
 11
333.43282219641293
 21
130.79999999999995
  0
LINE
  8
_0-0__
  6
CONTINUOUS
 62
    7
 10
331.43282219641247
 20
130.00000000000006
 11
329.4328221964127
 21
109.99999999999999
  0
LINE
  8
_0-0__
  6
CONTINUOUS
 62
    7
 10
351.43282219641293
 20
130.00000000000006
 11
331.43282219641247
 21
130.00000000000006
  0
LINE
  8
_0-0__
  6
CONTINUOUS
 62
    7
 10
351.43282219641293
 20
130.00000000000006
 11
353.4328221964127
 21
109.99999999999999
  0
LINE
  8
_0-0__
  6
CONTINUOUS
 62
    7
 10
349.43282219641247
 20
130.00000000000006
 11
349.43282219641247
 21
130.79999999999995
  0
LINE
  8
_0-0__
  6
CONTINUOUS
 62
    7
 10
333.43282219641293
 20
130.00000000000006
 11
333.43282219641293
 21
130.79999999999995
  0
LINE
  8
_0-0__
  6
CONTINUOUS
 62
    7
 10
337.93282219641247
 20
289.20000000000005
 11
337.93282219641247
 21
246.08541607507073
  0
LINE
  8
_0-0__
  6
CONTINUOUS
 62
    7
 10
344.93282219641293
 20
289.20000000000005
 11
344.93282219641293
 21
246.29803501182664
  0
LINE
  8
_0-0__
  6
DASHED1
 62
    7
 10
337.93282219641247
 20
246.08541607507073
 11
337.93282219641247
 21
244.48467519074774
  0
LINE
  8
_0-0__
  6
DASHED1
 62
    7
 10
344.93282219641293
 20
246.29803501182661
 11
344.93282219641293
 21
244.69729414607608
  0
LINE
  8
_0-0__
  6
CONTINUOUS
 62
    7
 10
344.93282219641293
 20
244.69729414607608
 11
344.93282219641293
 21
230.35183391005774
  0
LINE
  8
_0-0__
  6
CONTINUOUS
 62
    7
 10
337.93282219641247
 20
244.48467519074774
 11
337.93282219641247
 21
230.56113279270593
  0
LINE
  8
_0-0__
  6
DASHED1
 62
    7
 10
344.93282219641293
 20
230.35183391005774
 11
344.93282219641293
 21
228.7511232481952
  0
LINE
  8
_0-0__
  6
DASHED1
 62
    7
 10
337.93282219641247
 20
230.56113279270593
 11
337.93282219641247
 21
228.96042173489221
  0
LINE
  8
_0-0__
  6
CONTINUOUS
 62
    7
 10
337.93282219641247
 20
228.96042173489221
 11
337.93282219641247
 21
166.08543205555935
  0
LINE
  8
_0-0__
  6
CONTINUOUS
 62
    7
 10
344.93282219641293
 20
228.75112324819523
 11
344.93282219641293
 21
166.29805099231527
  0
LINE
  8
_0-0__
  6
CONTINUOUS
 62
    7
 10
344.93282219641293
 20
164.69731012656464
 11
344.93282219641293
 21
150.35184989054636
  0
LINE
  8
_0-0__
  6
CONTINUOUS
 62
    7
 10
344.93282219641293
 20
148.75113922868377
 11
344.93282219641293
 21
130.79999999999995
  0
LINE
  8
_0-0__
  6
CONTINUOUS
 62
    7
 10
337.93282219641247
 20
164.48469117123634
 11
337.93282219641247
 21
150.56114877319456
  0
LINE
  8
_0-0__
  6
CONTINUOUS
 62
    7
 10
337.93282219641247
 20
148.96043771538078
 11
337.93282219641247
 21
130.79999999999995
  0
LINE
  8
_0-0__
  6
DASHED1
 62
    7
 10
337.93282219641247
 20
166.08543205555935
 11
337.93282219641247
 21
164.48469117123634
  0
LINE
  8
_0-0__
  6
DASHED1
 62
    7
 10
344.93282219641293
 20
166.29805099231527
 11
344.93282219641293
 21
164.69731012656464
  0
LINE
  8
_0-0__
  6
DASHED1
 62
    7
 10
337.93282219641247
 20
150.56114877319456
 11
337.93282219641247
 21
148.96043771538078
  0
LINE
  8
_0-0__
  6
DASHED1
 62
    7
 10
344.93282219641293
 20
150.35184989054636
 11
344.93282219641293
 21
148.75113922868377
  0
LINE
  8
_0-0__
  6
CENTER2
 62
    6
 10
226.94999999999993
 20
313
 11
226.94999999999993
 21
106.99999999999999
  0
LINE
  8
_0-0__
  6
CENTER2
 62
    6
 10
341.4328221964127
 20
313
 11
341.4328221964127
 21
106.99999999999999
  0
LINE
  8
_0-0__
  6
CONTINUOUS
 62
    7
 10
189.4499999999997
 20
109.99999999999999
 11
189.4499999999997
 21
86.867413358839755
  0
LINE
  8
_0-0__
  6
CONTINUOUS
 62
    7
 10
525.45000000000016
 20
109.99999999999999
 11
189.4499999999997
 21
109.99999999999999
  0
POINT
  8
_0-0__
 62
    7
 10
239.45000000000016
 20
320
  0
POINT
  8
_0-0__
 62
    7
 10
214.4499999999997
 20
320
  0
LINE
  8
_1-0__
  6
CONTINUOUS
 62
    7
 10
239.45000000000016
 20
320
 11
214.4499999999997
 21
320
  0
TEXT
  8
_0-0__
 62
    7
 10
224.44999999999993
 20
320.19999999999999
 40
5
 41
1
 50
0
  1
25
  0
LINE
  8
_0-0__
  6
CONTINUOUS
 62
    7
 10
214.4499999999997
 20
320
 11
214.4499999999997
 21
315
  0
LINE
  8
_0-0__
  6
CONTINUOUS
 62
    7
 10
239.45000000000016
 20
320
 11
239.45000000000016
 21
315
  0
POINT
  8
_0-0__
 62
   18
 10
224.44999999999993
 20
253.75
  0
LINE
  8
_0-0__
  6
CONTINUOUS
 62
    7
 10
204.4499999999997
 20
253.75
 11
224.44999999999993
 21
253.75
  0
TEXT
  8
_0-0__
 62
    7
 10
173.4499999999997
 20
251.25
 40
5
 41
1
 50
0
  1
ポリエチレン
  0
TEXT
  8
_0-0__
 62
    7
 10
173.4499999999997
 20
245.25
 40
5
 41
1
 50
0
  1
独立気泡発泡体
  0
POINT
  8
_0-0__
 62
   18
 10
224.44999999999993
 20
141.25000000000011
  0
LINE
  8
_0-0__
  6
CONTINUOUS
 62
    7
 10
204.4499999999997
 20
141.25000000000011
 11
224.44999999999993
 21
141.25000000000011
  0
TEXT
  8
_0-0__
 62
    7
 10
173.4499999999997
 20
138.75000000000011
 40
5
 41
1
 50
0
  1
ポリエチレン
  0
TEXT
  8
_0-0__
 62
    7
 10
173.4499999999997
 20
132.75000000000011
 40
5
 41
1
 50
0
  1
独立気泡発泡体
  0
LINE
  8
_0-0__
  6
CONTINUOUS
 62
    7
 10
204.4499999999997
 20
199
 11
224.44999999999993
 21
199
  0
POINT
  8
_0-0__
 62
   18
 10
224.44999999999993
 20
199
  0
LINE
  8
_0-0__
  6
CONTINUOUS
 62
   18
 10
244.44999422640433
 20
252.50000051549961
 11
241.44999422640433
 21
252.50000051549961
  0
LINE
  8
_0-0__
  6
CONTINUOUS
 62
   18
 10
244.44999422640433
 20
267.50000051549961
 11
247.44999422640433
 21
267.50000051549961
  0
LINE
  8
_0-0__
  6
CONTINUOUS
 62
   18
 10
244.44999422640433
 20
262.00000010309992
 11
244.44999422640433
 21
252.50000051549961
  0
ARC
  8
_0-0__
  6
CONTINUOUS
 62
   18
 10
244.94999422640433
 20
262.00000010309992
 40
0.5
 50
90
 51
180
  0
LINE
  8
_0-0__
  6
CONTINUOUS
 62
   18
 10
246.94999670080244
 20
262.50000010309992
 11
244.94999422640433
 21
262.50000010309992
  0
LINE
  8
_0-0__
  6
CONTINUOUS
 62
   18
 10
247.44999670080244
 20
263.00000010309992
 11
247.44999670080244
 21
267.50000051549961
  0
ARC
  8
_0-0__
  6
CONTINUOUS
 62
   18
 10
246.94999670080244
 20
263.00000010309992
 40
0.5
 50
270
 51
0
  0
ARC
  8
_0-0__
  6
CONTINUOUS
 62
    1
 10
246.94999670080244
 20
263.00000010309992
 40
0.5
 50
270
 51
0
  0
ARC
  8
_0-0__
  6
CONTINUOUS
 62
    1
 10
244.94999422640433
 20
262.00000010309992
 40
0.5
 50
90
 51
180
  0
SOLID
  8
_0-0__
  6
CONTINUOUS
 62
    8
 10
244.44999422640433
 20
267.50000051549961
 11
247.44999422640433
 21
267.50000051549961
 12
244.44999422640433
 22
262.50000010309992
 13
246.94999670080244
 23
262.50000010309992
  0
SOLID
  8
_0-0__
  6
CONTINUOUS
 62
    8
 10
247.44999422640433
 20
267.50000051549961
 11
247.44999670080244
 21
263.00000010309992
 12
246.94999670080244
 22
262.50000010309992
 13
246.94999670080244
 23
262.50000010309992
  0
SOLID
  8
_0-0__
  6
CONTINUOUS
 62
    8
 10
244.44999175200621
 20
265.50000010309992
 11
244.44999422640433
 21
252.50000051549961
 12
242.44999752560204
 22
265.50000010309992
 13
242.38175362251923
 23
265.49766798277159
  0
SOLID
  8
_0-0__
  6
CONTINUOUS
 62
    8
 10
244.44999422640433
 20
252.50000051549961
 11
241.44999422640433
 21
252.50000051549961
 12
242.38175362251923
 22
265.49766798277159
 13
242.31383139120589
 23
265.49068399377774
  0
SOLID
  8
_0-0__
  6
CONTINUOUS
 62
    8
 10
241.44999422640433
 20
252.50000051549961
 11
241.44999422640433
 21
264.50000298989784
 12
242.31383139120589
 22
265.49068399377774
 13
242.24654013144027
 23
265.47908525209169
  0
SOLID
  8
_0-0__
  6
CONTINUOUS
 62
    8
 10
241.44999422640433
 20
264.50000298989784
 11
241.45233253272829
 21
264.56824070698508
 12
242.24654013144027
 22
265.47908525209169
 13
242.18020151499184
 23
265.46291505968247
  0
SOLID
  8
_0-0__
  6
CONTINUOUS
 62
    8
 10
241.45233253272829
 20
264.56824070698508
 11
241.45931033572663
 21
264.63616912429399
 12
242.18020151499184
 22
265.46291505968247
 13
242.11511246964767
 23
265.44226002048799
  0
SOLID
  8
_0-0__
  6
CONTINUOUS
 62
    8
 10
241.45931033572663
 20
264.63616912429399
 11
241.47091526340819
 21
264.70345419806404
 12
242.11511246964767
 22
265.44226002048799
 13
242.05159466717714
 23
265.4172129244418
  0
SOLID
  8
_0-0__
  6
CONTINUOUS
 62
    8
 10
241.47091526340819
 20
264.70345419806404
 11
241.48708545581735
 21
264.7697990005081
 12
242.05159466717714
 22
265.4172129244418
 13
241.98993266337652
 23
265.38788511946393
  0
SOLID
  8
_0-0__
  6
CONTINUOUS
 62
    8
 10
241.48708545581735
 20
264.7697990005081
 11
241.5077343090162
 21
264.83488185985669
 12
241.98993266337652
 22
265.38788511946393
 13
241.93041101404162
 23
265.35441888345252
  0
SOLID
  8
_0-0__
  6
CONTINUOUS
 62
    8
 10
241.5077343090162
 20
264.83488185985669
 11
241.53278759105808
 21
264.89839966232711
 12
241.93041101404162
 22
265.35441888345252
 13
241.87331427496849
 23
265.31696886629669
  0
SOLID
  8
_0-0__
  6
CONTINUOUS
 62
    8
 10
241.53278759105808
 20
264.89839966232711
 11
241.56210921004038
 21
264.96006166612779
 12
241.87331427496849
 22
265.31696886629669
 13
241.81891462996225
 23
265.27570827587232
  0
SOLID
  8
_0-0__
  6
CONTINUOUS
 62
    8
 10
241.56210921004038
 20
264.96006166612779
 11
241.59557544605173
 21
265.01958331546268
 12
241.81891462996225
 22
265.27570827587232
 13
241.76744714685412
 23
265.23083506403742
  0
SOLID
  8
_0-0__
  6
CONTINUOUS
 62
    8
 10
241.59557544605173
 20
265.01958331546268
 11
241.63302546320756
 21
265.07668005453576
 12
241.76744714685412
 22
265.23083506403742
 13
241.71915926546683
 23
265.18255336864576
  0
SOLID
  8
_0-0__
  6
CONTINUOUS
 62
    8
 10
241.63302546320756
 20
265.07668005453576
 11
241.67428605363204
 21
265.13108588553763
 12
241.71915926546683
 22
265.18255336864576
 13
241.71915926546683
 23
265.18255336864576
  0
TEXT
  8
_0-0__
 62
    7
 10
173.4499999999997
 20
196.5
 40
5
 41
1
 50
0
  1
ロックウール
  0
POINT
  8
_0-0__
 62
   18
 10
212.9499999999997
 20
272.49999999999989
  0
LINE
  8
_0-0__
  6
CONTINUOUS
 62
    7
 10
264.45000000000016
 20
272.49999999999989
 11
212.9499999999997
 21
272.49999999999989
  0
TEXT
  8
_0-0__
 62
    7
 10
265.45000000000016
 20
269.99999999999989
 40
5
 41
1
 50
0
  1
再生ブチル(3×15)
  0
LINE
  8
_0-0__
  6
CONTINUOUS
 62
    7
 10
254.45000000000016
 20
257.25000030929976
 11
242.94999422640433
 21
257.25000030929976
  0
LINE
  8
_0-0__
  6
CONTINUOUS
 62
    7
 10
254.45000000000016
 20
257.25000030929976
 11
254.45000000000016
 21
272.49999999999989
  0
POINT
  8
_0-0__
 62
   18
 10
242.94999422640433
 20
257.25000030929976
  0
POINT
  8
_0-0__
 62
   18
 10
341.4328221964127
 20
270
  0
LINE
  8
_0-0__
  6
CONTINUOUS
 62
    7
 10
341.4328221964127
 20
270
 11
356.4328221964127
 21
270
  0
TEXT
  8
_0-0__
 62
    7
 10
357.4328221964127
 20
267.5
 40
5
 41
1
 50
0
  1
セパレーター(現場調達)
  0
LINE
  8
_0-0__
  6
CONTINUOUS
 62
    7
 10
269.44999587600319
 20
213.50000051549961
 11
269.44999587600319
 21
223.50000051549961
  0
POINT
  8
_0-0__
 62
   18
 10
269.44999587600319
 20
223.50000051549961
  0
LINE
  8
_0-0__
  6
CONTINUOUS
 62
    7
 10
279.44999587600319
 20
213.50000051549961
 11
269.44999587600319
 21
213.50000051549961
  0
TEXT
  8
_0-0__
 62
    7
 10
280.44999587600319
 20
211.00000051549961
 40
5
 41
1
 50
0
  1
補強板(塩ビ)
  0
LINE
  8
_0-0__
  6
CONTINUOUS
 62
    7
 10
253.44999670080256
 20
224.50000092789935
 11
277.4499954636035
 21
224.50000092789935
  0
LINE
  8
_0-0__
  6
CONTINUOUS
 62
    7
 10
301.04642622572857
 20
254.05759494429213
 11
291.04642622572857
 21
254.05759494429213
  0
TEXT
  8
_0-0__
 62
    7
 10
302.04642622572857
 20
251.55759494429213
 40
5
 41
1
 50
0
  1
Ａ－Ｓ金具
  0
LINE
  8
_0-0__
  6
CONTINUOUS
 62
    7
 10
291.04642622572857
 20
254.05759494429213
 11
291.04642622572857
 21
244.05759494429213
  0
POINT
  8
_0-0__
 62
   18
 10
291.04642622572857
 20
244.05759494429213
  0
LINE
  8
_0-0__
  6
CONTINUOUS
 62
    7
 10
123.99999999999977
 20
205.99999999999989
 11
133.99999999999989
 21
205.99999999999989
  0
LINE
  8
_0-0__
  6
CONTINUOUS
 62
    7
 10
133.99999999999989
 20
205.99999999999989
 11
133.99999999999989
 21
216
  0
LINE
  8
_0-0__
  6
CONTINUOUS
 62
    7
 10
133.99999999999989
 20
216
 11
123.99999999999977
 21
216
  0
LINE
  8
_0-0__
  6
CONTINUOUS
 62
    7
 10
123.99999999999977
 20
216
 11
123.99999999999977
 21
205.99999999999989
  0
TEXT
  8
_0-0__
 62
    7
 10
126.49999999999977
 20
208.49999999999994
 40
5
 41
1
 50
0
  1
柱
  0
LINE
  8
_0-0__
  6
CONTINUOUS
 62
    7
 10
423.4414110982064
 20
205.99999999999989
 11
433.44141109820652
 21
205.99999999999989
  0
LINE
  8
_0-0__
  6
CONTINUOUS
 62
    7
 10
433.44141109820652
 20
205.99999999999989
 11
433.44141109820652
 21
216
  0
LINE
  8
_0-0__
  6
CONTINUOUS
 62
    7
 10
433.44141109820652
 20
216
 11
423.4414110982064
 21
216
  0
LINE
  8
_0-0__
  6
CONTINUOUS
 62
    7
 10
423.4414110982064
 20
216
 11
423.4414110982064
 21
205.99999999999989
  0
TEXT
  8
_0-0__
 62
    7
 10
425.9414110982064
 20
208.49999999999994
 40
5
 41
1
 50
0
  1
壁
  0
POINT
  8
_0-0__
 62
    7
 10
239.45000000000016
 20
97.999999999999986
  0
POINT
  8
_0-0__
 62
    7
 10
214.4499999999997
 20
97.999999999999986
  0
LINE
  8
_1-0__
  6
CONTINUOUS
 62
    7
 10
239.45000000000016
 20
97.999999999999986
 11
214.4499999999997
 21
97.999999999999986
  0
TEXT
  8
_0-0__
 62
    7
 10
224.44999999999993
 20
98.199999999999974
 40
5
 41
1
 50
0
  1
25
  0
LINE
  8
_0-0__
  6
CONTINUOUS
 62
    7
 10
214.4499999999997
 20
104.99999999999999
 11
214.4499999999997
 21
97.999999999999986
  0
LINE
  8
_0-0__
  6
CONTINUOUS
 62
    7
 10
239.45000000000016
 20
104.99999999999999
 11
239.45000000000016
 21
97.999999999999986
  0
POINT
  8
_0-0__
 62
   18
 10
162.4499999999997
 20
109.99999999999999
  0
POINT
  8
_0-0__
 62
   18
 10
162.4499999999997
 20
284.99999999999989
  0
LINE
  8
_0-0__
  6
CONTINUOUS
 62
    7
 10
162.4499999999997
 20
109.99999999999999
 11
169.4499999999997
 21
109.99999999999999
  0
LINE
  8
_0-0__
  6
CONTINUOUS
 62
    7
 10
162.4499999999997
 20
284.99999999999989
 11
169.4499999999997
 21
284.99999999999989
  0
LINE
  8
_0-0__
  6
CONTINUOUS
 62
    7
 10
162.4499999999997
 20
109.99999999999999
 11
162.4499999999997
 21
284.99999999999989
  0
TEXT
  8
_0-0__
 62
    7
 10
162.24999999999972
 20
187.49999999999994
 40
5
 41
1
 50
90
  1
製品寸法
  0
LINE
  8
_0-0__
  6
CONTINUOUS
 62
    7
 10
162.4499999999997
 20
284.99999999999989
 11
162.4499999999997
 21
310
  0
POINT
  8
_0-0__
 62
   18
 10
162.4499999999997
 20
310
  0
TEXT
  8
_0-0__
 62
    7
 10
162.24999999999972
 20
287.49999999999994
 40
5
 41
1
 50
90
  1
目地深さ
  0
TEXT
  8
_0-0__
 62
    7
 10
256.80849887332408
 20
23.160000000000025
 40
3.6000000000000001
 41
1
 50
0
  1
https://www.axis-slit.com/pailon/
  0
ENDSEC
  0
EOF
