  0
SECTION
  2
HEADER
  9
$ACADVER
  1
AC1009
  9
$INSBASE
 10
0
 20
0
 30
0
  9
$EXTMIN
 10
0
 20
0
  9
$EXTMAX
 10
594
 20
420
  9
$LIMMIN
 10
0
 20
0
  9
$LIMMAX
 10
594
 20
420
  9
$LTSCALE
 40
2
  0
ENDSEC
  0
SECTION
  2
TABLES
  0
TABLE
  2
LTYPE
 70
     9
  0
LTYPE
  2
CONTINUOUS
 70
    64
  3
実線
 72
    65
 73
     0
 40
0.0
  0
LTYPE
  2
DASHED1
 70
    64
  3
--  --  --  --  --  --  --  --  
 72
    65
 73
     2
 40
2.5
 49
1.25
 49
-1.25
  0
LTYPE
  2
DASHED2
 70
    64
  3
----    ----    ----    ----    
 72
    65
 73
     2
 40
5.0
 49
2.5
 49
-2.5
  0
LTYPE
  2
DASHED3
 70
    64
  3
------  ------  ------  ------  
 72
    65
 73
     2
 40
5.0
 49
3.75
 49
-1.25
  0
LTYPE
  2
CENTER1
 70
    64
  3
----- - ----- - ----- - ----- - 
 72
    65
 73
     4
 40
10.0
 49
6.25
 49
-1.25
 49
1.25
 49
-1.25
  0
LTYPE
  2
CENTER2
 70
    64
  3
----------  --  ----------  --  
 72
    65
 73
     4
 40
20.0
 49
12.5
 49
-2.5
 49
2.5
 49
-2.5
  0
LTYPE
  2
PHANTOM1
 70
    64
  3
--- - - --- - - --- - - --- - - 
 72
    65
 73
     6
 40
10.0
 49
3.25
 49
-1.25
 49
1.25
 49
-1.25
 49
1.25
 49
-1.25
  0
LTYPE
  2
PHANTOM2
 70
    64
  3
--------  -  -  --------  -  -  
 72
    65
 73
     6
 40
20.0
 49
10.0
 49
-2.5
 49
1.25
 49
-2.5
 49
1.25
 49
-2.5
  0
LTYPE
  2
DOT
 70
    64
  3
-   -   -   -   -   -   -   -   
 72
    65
 73
     2
 40
2.5
 49
0.625
 49
-1.875
  0
LTYPE
  2
DUMMY
 70
    64
  3
ダミー
 72
    65
 73
     0
 40
0.0
  0
LTYPE
  2
RAND1
 70
    64
  3
ランダム線1
 72
    65
 73
     4
 40
10.0
 49
1.0
 49
-2.0
 49
3.0
 49
-4.0
  0
LTYPE
  2
RAND2
 70
    64
  3
ランダム線2
 72
    65
 73
     4
 40
14.0
 49
2.0
 49
-3.0
 49
4.0
 49
-5.0
  0
LTYPE
  2
RAND3
 70
    64
  3
ランダム線3
 72
    65
 73
     4
 40
18.0
 49
3.0
 49
-4.0
 49
5.0
 49
-6.0
  0
LTYPE
  2
RAND4
 70
    64
  3
ランダム線4
 72
    65
 73
     4
 40
22.0
 49
4.0
 49
-5.0
 49
6.0
 49
-7.0
  0
LTYPE
  2
RAND5
 70
    64
  3
ランダム線5
 72
    65
 73
     4
 40
26.0
 49
5.0
 49
-6.0
 49
7.0
 49
-8.0
  0
LTYPE
  2
LONG1
 70
    64
  3
----------  --  ----------  --  
 72
    65
 73
     4
 40
40.0
 49
32.5
 49
-2.5
 49
2.5
 49
-2.5
  0
LTYPE
  2
LONG2
 70
    64
  3
--------  -  -  --------  -  -  
 72
    65
 73
     6
 40
40.0
 49
30.0
 49
-2.5
 49
1.25
 49
-2.5
 49
1.25
 49
-2.5
  0
LTYPE
  2
LONG3
 70
    64
  3
+++++++++++++++..+++++++++++++++
 72
    65
 73
     2
 40
40.0
 49
37.5
 49
-2.5
  0
LTYPE
  2
LONG4
 70
    64
  3
+++++++++++++++..+++++++++++++++
 72
    65
 73
     2
 40
80.0
 49
75.0
 49
-5.0
  0
LTYPE
  2
LONG5
 70
    64
  3
----------  --  ----------  --  
 72
    65
 73
     4
 40
60.0
 49
37.5
 49
-7.5
 49
7.5
 49
-7.5
  0
LTYPE
  2
dashed
 70
   64
  3
-------   -------------   ------
 72
   65
 73
    2
 40
7.5
 49
6
 49
-1.5
  0
LTYPE
  2
dashed_spaced
 70
   64
  3
----        --------        ----
 72
   65
 73
    2
 40
12
 49
6
 49
-6
  0
LTYPE
  2
long_dashed_dotted
 70
   64
  3
------------- --- --------------
 72
   65
 73
    4
 40
15.25
 49
12
 49
-1.5
 49
0.25
 49
-1.5
  0
LTYPE
  2
long_dashed_double-dotted
 70
   64
  3
----------- --- --- ------------
 72
   65
 73
    6
 40
17
 49
12
 49
-1.5
 49
0.25
 49
-1.5
 49
0.25
 49
-1.5
  0
LTYPE
  2
long_dashed_triplicate-dotted
 70
   64
  3
--------- --- --- --- ----------
 72
   65
 73
    8
 40
18.75
 49
12
 49
-1.5
 49
0.25
 49
-1.5
 49
0.25
 49
-1.5
 49
0.25
 49
-1.5
  0
LTYPE
  2
dotted
 70
   64
  3
   -       -       -       -    
 72
   65
 73
    2
 40
1.75
 49
0.25
 49
-1.5
  0
LTYPE
  2
chain
 70
   64
  3
-------------- -- --------------
 72
   65
 73
    4
 40
18.5
 49
12
 49
-1.5
 49
3.5
 49
-1.5
  0
LTYPE
  2
chain_double_dash
 70
   64
  3
------------ -- -- -------------
 72
   65
 73
    6
 40
23.5
 49
12
 49
-1.5
 49
3.5
 49
-1.5
 49
3.5
 49
-1.5
  0
LTYPE
  2
dashed_dotted
 70
   64
  3
-----------     -     ----------
 72
   65
 73
    4
 40
9.25
 49
6
 49
-1.5
 49
0.25
 49
-1.5
  0
LTYPE
  2
double-dashed_dotted
 70
   64
  3
------   -----------   -   -----
 72
   65
 73
    6
 40
16.75
 49
6
 49
-1.5
 49
6
 49
-1.5
 49
0.25
 49
-1.5
  0
LTYPE
  2
dashed_double-dotted
 70
   64
  3
---------    -    -    ---------
 72
   65
 73
    6
 40
11
 49
6
 49
-1.5
 49
0.25
 49
-1.5
 49
0.25
 49
-1.5
  0
LTYPE
  2
double-dashed_double-dotted
 70
   64
  3
-----   ---------   -   -   ----
 72
   65
 73
    8
 40
18.5
 49
6
 49
-1.5
 49
6
 49
-1.5
 49
0.25
 49
-1.5
 49
0.25
 49
-1.5
  0
LTYPE
  2
dashed_triplicate-dotted
 70
   64
  3
-------    -    -    -    ------
 72
   65
 73
    8
 40
12.75
 49
6
 49
-1.5
 49
0.25
 49
-1.5
 49
0.25
 49
-1.5
 49
0.25
 49
-1.5
  0
LTYPE
  2
double-dashed_triplicate-dotted
 70
   64
  3
-----  ---------  -  -  -  -----
 72
   65
 73
   10
 40
20.25
 49
6
 49
-1.5
 49
6
 49
-1.5
 49
0.25
 49
-1.5
 49
0.25
 49
-1.5
 49
0.25
 49
-1.5
  0
LTYPE
  2
undefined
 70
   64
  3
--------------------------------
 72
   65
 73
    0
 40
0
  0
ENDTAB
  0
TABLE
  2
STYLE
  5
3
100
AcDbSymbolTable
 70
     1
  0
STYLE
  5
10
100
AcDbSymbolTableRecord
100
AcDbTextStyleTableRecord
  2
STANDARD
 70
     0
 40
0.0
 41
1.0
 50
0.0
 71
     0
 42
0.2
  3
txt
  4
bigfont.shx
  0
STYLE
  5
26
100
AcDbSymbolTableRecord
100
AcDbTextStyleTableRecord
  2
TATEGAKI
 70
    68
 40
0.0
 41
1.0
 50
0.0
 71
     0
 42
1.0
  3
txt
  4
bigfont.shx
  0
ENDTAB
  0
TABLE
  2
LAYER
 70
    2
  0
LAYER
  2
_0-0__
 70
   64
 62
    7
  6
CONTINUOUS
  0
LAYER
  2
ADD_LINE
 70
   64
 62
    7
  6
CONTINUOUS
  0
ENDTAB
  0
ENDSEC
  0
SECTION
  2
BLOCKS
  0
ENDSEC
  0
SECTION
  2
ENTITIES
  0
LINE
  8
_0-0__
  6
DASHED1
 62
    7
 10
178
 20
21.699999999999989
 11
38
 21
21.699999999999989
  0
LINE
  8
_0-0__
  6
DASHED1
 62
    7
 10
178
 20
32.899999999999977
 11
38
 21
32.899999999999977
  0
LINE
  8
_0-0__
  6
CONTINUOUS
 62
    7
 10
38
 20
16.099999999999994
 11
38
 21
38.499999999999972
  0
LINE
  8
_0-0__
  6
DASHED1
 62
    7
 10
65.999999999999972
 20
16.099999999999994
 11
65.999999999999972
 21
38.499999999999972
  0
LINE
  8
_0-0__
  6
CONTINUOUS
 62
    7
 10
577
 20
403.89999999999998
 11
577
 21
16.099999999999994
  0
LINE
  8
_0-0__
  6
CONTINUOUS
 62
    7
 10
577
 20
16.099999999999994
 11
17
 21
16.099999999999994
  0
LINE
  8
_0-0__
  6
CONTINUOUS
 62
    7
 10
17
 20
403.89999999999998
 11
577
 21
403.89999999999998
  0
LINE
  8
_0-0__
  6
CONTINUOUS
 62
    7
 10
17
 20
16.099999999999994
 11
17
 21
403.89999999999998
  0
LINE
  8
_0-0__
  6
CONTINUOUS
 62
    7
 10
507
 20
27.299999999999983
 11
507
 21
16.099999999999994
  0
LINE
  8
_0-0__
  6
CONTINUOUS
 62
    7
 10
535
 20
27.299999999999983
 11
367
 21
27.299999999999983
  0
LINE
  8
_0-0__
  6
CONTINUOUS
 62
    7
 10
535
 20
38.499999999999972
 11
535
 21
16.099999999999994
  0
LINE
  8
_0-0__
  6
CONTINUOUS
 62
    7
 10
577
 20
38.499999999999972
 11
17
 21
38.499999999999972
  0
LINE
  8
_0-0__
  6
CONTINUOUS
 62
    7
 10
577
 20
39.199999999999989
 11
17
 21
39.199999999999989
  0
LINE
  8
_0-0__
  6
CONTINUOUS
 62
    7
 10
479
 20
38.499999999999972
 11
479
 21
16.099999999999994
  0
LINE
  8
_0-0__
  6
CONTINUOUS
 62
    7
 10
367
 20
38.499999999999972
 11
367
 21
16.099999999999994
  0
LINE
  8
_0-0__
  6
CONTINUOUS
 62
    7
 10
178
 20
16.099999999999994
 11
178
 21
38.499999999999972
  0
LINE
  8
_0-0__
  6
DASHED1
 62
    7
 10
178
 20
27.299999999999983
 11
38
 21
27.299999999999983
  0
LINE
  8
_0-0__
  6
CONTINUOUS
 62
    7
 10
577.27999999999997
 20
404.18000000000001
 11
16.71999999999997
 21
404.18000000000001
  0
LINE
  8
_0-0__
  6
CONTINUOUS
 62
    7
 10
16.71999999999997
 20
404.18000000000001
 11
16.71999999999997
 21
15.819999999999993
  0
LINE
  8
_0-0__
  6
CONTINUOUS
 62
    7
 10
577.27999999999997
 20
15.819999999999993
 11
577.27999999999997
 21
404.18000000000001
  0
LINE
  8
_0-0__
  6
CONTINUOUS
 62
    7
 10
16.71999999999997
 20
15.819999999999993
 11
577.27999999999997
 21
15.819999999999993
  0
LINE
  8
ADD_LINE
  6
DOT
 62
    9
 10
16.71999999999997
 20
404.18000000000001
 11
577.27999999999997
 21
15.819999999999993
  0
LINE
  8
ADD_LINE
  6
DOT
 62
    9
 10
16.71999999999997
 20
15.819999999999993
 11
577.27999999999997
 21
404.18000000000001
  0
TEXT
  8
_0-0__
 62
    7
 10
24.200000000000102
 20
25.699999999999989
 40
3.2000000000000002
 41
1
 50
0
  1
改訂
  0
TEXT
  8
_0-0__
 62
    7
 10
369
 20
23.099999999999994
 40
3.2000000000000002
 41
1
 50
0
  1
図面名
  0
TEXT
  8
_0-0__
 62
    7
 10
369
 20
34.299999999999983
 40
3.2000000000000002
 41
1
 50
0
  1
件名
  0
TEXT
  8
_0-0__
 62
    7
 10
481
 20
34.299999999999983
 40
3.2000000000000002
 41
1
 50
0
  1
DATE
  0
TEXT
  8
_0-0__
 62
    7
 10
481
 20
23.099999999999994
 40
3.2000000000000002
 41
1
 50
0
  1
SCALE
  0
TEXT
  8
_0-0__
 62
    7
 10
509.00000000000006
 20
23.099999999999994
 40
3.2000000000000002
 41
1
 50
0
  1
担当
  0
TEXT
  8
_0-0__
 62
    7
 10
537
 20
34.299999999999983
 40
3.2000000000000002
 41
1
 50
0
  1
図面№
  0
TEXT
  8
_0-0__
 62
    7
 10
256.80849887332408
 20
32.360000000000014
 40
3.6000000000000001
 41
1
 50
0
  1
〒166-0004　東京都杉並区阿佐谷南1-33-1　第二東都ビル2F
  0
TEXT
  8
_0-0__
 62
    2
 10
485
 20
17.889999999999986
 40
4.4000000000000004
 41
1
 50
0
  1
A4：1/2
  0
TEXT
  8
_0-0__
 62
    7
 10
256.80849887332408
 20
27.759999999999991
 40
3.6000000000000001
 41
1
 50
0
  1
TEL：03(5305)4322 / FAX：03(3316)4177
  0
TEXT
  8
_0-0__
 62
    7
 10
256.80849887332408
 20
18.560000000000059
 40
3.6000000000000001
 41
1
 50
0
  1
e-mail：info@pailon.co.jp
  0
TEXT
  8
_0-0__
 62
    7
 10
196.10869565217394
 20
24.652173913043498
 40
6
 41
1
 50
0
  1
パイロン株式会社
  0
TEXT
  8
_0-0__
 62
    2
 10
495.55000000000013
 20
29.089999999999975
 40
4.4000000000000004
 41
1
 50
0
  1
2021/11/01
  0
LINE
  8
_0-0__
  6
CONTINUOUS
 62
   18
 10
312
 20
292.5
 11
282
 21
292.5
  0
LINE
  8
_0-0__
  6
CONTINUOUS
 62
   18
 10
283
 20
307.5
 11
283
 21
293.5
  0
LINE
  8
_0-0__
  6
CONTINUOUS
 62
   18
 10
282
 20
292.5
 11
282
 21
307.5
  0
LINE
  8
_0-0__
  6
CONTINUOUS
 62
   18
 10
312
 20
292.5
 11
312
 21
307.5
  0
LINE
  8
_0-0__
  6
CONTINUOUS
 62
   18
 10
311
 20
307.5
 11
311
 21
293.5
  0
LINE
  8
_0-0__
  6
CONTINUOUS
 62
   18
 10
311
 20
293.5
 11
283
 21
293.5
  0
LINE
  8
_0-0__
  6
CONTINUOUS
 62
   18
 10
312
 20
307.5
 11
282
 21
307.5
  0
SOLID
  8
_0-0__
  6
CONTINUOUS
 62
    8
 10
312
 20
292.5
 11
312
 21
307.5
 12
311
 22
307.5
 13
311
 23
307.5
  0
SOLID
  8
_0-0__
  6
CONTINUOUS
 62
    8
 10
312
 20
292.5
 11
311
 21
307.5
 12
311
 22
293.5
 13
311
 23
293.5
  0
SOLID
  8
_0-0__
  6
CONTINUOUS
 62
    8
 10
312
 20
292.5
 11
311
 21
293.5
 12
283
 22
293.5
 13
283
 23
293.5
  0
SOLID
  8
_0-0__
  6
CONTINUOUS
 62
    8
 10
283
 20
307.5
 11
282
 21
307.5
 12
282
 22
292.5
 13
282
 23
292.5
  0
SOLID
  8
_0-0__
  6
CONTINUOUS
 62
    8
 10
282
 20
292.5
 11
312
 21
292.5
 12
283
 22
293.5
 13
283
 23
293.5
  0
SOLID
  8
_0-0__
  6
CONTINUOUS
 62
    8
 10
282
 20
292.5
 11
283
 21
293.5
 12
283
 22
307.5
 13
283
 23
307.5
  0
LINE
  8
_0-0__
  6
CONTINUOUS
 62
    7
 10
309.41472916283396
 20
293.50000000000057
 11
310.99999999999932
 21
295.08527083716592
  0
LINE
  8
_0-0__
  6
CONTINUOUS
 62
    7
 10
306.58630203808752
 20
293.5000000000008
 11
310.99999999999909
 21
297.91369796191231
  0
LINE
  8
_0-0__
  6
CONTINUOUS
 62
    7
 10
303.75787491334108
 20
293.50000000000102
 11
310.99999999999932
 21
300.74212508665914
  0
LINE
  8
_0-0__
  6
CONTINUOUS
 62
    7
 10
300.92944778859396
 20
293.50000000000057
 11
311.00000000000023
 21
303.57055221140678
  0
LINE
  8
_0-0__
  6
CONTINUOUS
 62
    7
 10
298.10102066385002
 20
293.4999999999996
 11
310.99999999999977
 21
306.39897933614952
  0
LINE
  8
_0-0__
  6
CONTINUOUS
 62
    7
 10
295.27259353910358
 20
293.49999999999983
 11
309.27259353910404
 21
307.50000000000034
  0
LINE
  8
_0-0__
  6
CONTINUOUS
 62
    7
 10
292.44416641435714
 20
293.5
 11
306.4441664143576
 21
307.50000000000057
  0
LINE
  8
_0-0__
  6
CONTINUOUS
 62
    7
 10
289.61573928961047
 20
293.50000000000023
 11
303.61573928961116
 21
307.50000000000074
  0
LINE
  8
_0-0__
  6
CONTINUOUS
 62
    7
 10
286.78731216486426
 20
293.50000000000045
 11
300.78731216486472
 21
307.50000000000102
  0
LINE
  8
_0-0__
  6
CONTINUOUS
 62
    7
 10
283.95888504011782
 20
293.50000000000068
 11
297.95888504011828
 21
307.50000000000119
  0
LINE
  8
_0-0__
  6
CONTINUOUS
 62
    7
 10
282.99999999999932
 20
295.36954208462873
 11
295.13045791537093
 21
307.50000000000034
  0
LINE
  8
_0-0__
  6
CONTINUOUS
 62
    7
 10
282.99999999999886
 20
298.19796920937335
 11
292.30203079062585
 21
307.50000000000034
  0
LINE
  8
_0-0__
  6
CONTINUOUS
 62
    7
 10
283.00000000000023
 20
301.02639633411945
 11
289.47360366588077
 21
307.5
  0
LINE
  8
_0-0__
  6
CONTINUOUS
 62
    7
 10
282.99999999999977
 20
303.85482345886584
 11
286.64517654113433
 21
307.50000000000028
  0
LINE
  8
_0-0__
  6
CONTINUOUS
 62
    7
 10
282.99999999999955
 20
306.68325058361222
 11
283.81674941638789
 21
307.50000000000045
  0
LINE
  8
_0-0__
  6
CONTINUOUS
 62
    7
 10
283.00000000000023
 20
295.158166742616
 11
284.658166742616
 21
293.50000000000011
  0
LINE
  8
_0-0__
  6
CONTINUOUS
 62
    7
 10
283.00000000000023
 20
297.98659386736267
 11
287.48659386736244
 21
293.50000000000034
  0
LINE
  8
_0-0__
  6
CONTINUOUS
 62
    7
 10
283.00000000000023
 20
300.81502099210923
 11
290.31502099210888
 21
293.50000000000057
  0
LINE
  8
_0-0__
  6
CONTINUOUS
 62
    7
 10
282.99999999999932
 20
303.64344811685316
 11
293.14344811685328
 21
293.49999999999932
  0
LINE
  8
_0-0__
  6
CONTINUOUS
 62
    7
 10
282.99999999999977
 20
306.47187524159949
 11
295.97187524159995
 21
293.4999999999992
  0
LINE
  8
_0-0__
  6
CONTINUOUS
 62
    7
 10
284.80030236634593
 20
307.49999999999994
 11
298.80030236634639
 21
293.49999999999943
  0
LINE
  8
_0-0__
  6
CONTINUOUS
 62
    7
 10
287.62872949109237
 20
307.50000000000011
 11
301.62872949109283
 21
293.49999999999966
  0
LINE
  8
_0-0__
  6
CONTINUOUS
 62
    7
 10
290.45715661583881
 20
307.50000000000034
 11
304.45715661583949
 21
293.49999999999983
  0
LINE
  8
_0-0__
  6
CONTINUOUS
 62
    7
 10
293.28558374058525
 20
307.50000000000057
 11
307.28558374058571
 21
293.50000000000011
  0
LINE
  8
_0-0__
  6
CONTINUOUS
 62
    7
 10
296.11401086533283
 20
307.49999999999977
 11
310.11401086533238
 21
293.50000000000023
  0
LINE
  8
_0-0__
  6
CONTINUOUS
 62
    7
 10
298.94243799007927
 20
307.5
 11
311.00000000000045
 21
295.44243799007882
  0
LINE
  8
_0-0__
  6
CONTINUOUS
 62
    7
 10
301.77086511482207
 20
307.50000000000011
 11
311.00000000000023
 21
298.27086511482213
  0
LINE
  8
_0-0__
  6
CONTINUOUS
 62
    7
 10
304.59929223956919
 20
307.4999999999996
 11
310.99999999999932
 21
301.09929223956948
  0
LINE
  8
_0-0__
  6
CONTINUOUS
 62
    7
 10
307.42771936431586
 20
307.49999999999977
 11
310.99999999999977
 21
303.92771936431586
  0
LINE
  8
_0-0__
  6
CONTINUOUS
 62
    7
 10
310.25614648906208
 20
307.5
 11
311
 21
306.75614648906219
  0
ARC
  8
_0-0__
  6
CONTINUOUS
 62
    7
 10
297
 20
363.5
 40
39
 50
247.38013505195957
 51
292.6198649480404
  0
LINE
  8
_0-0__
  6
CONTINUOUS
 62
    7
 10
282
 20
307.5
 11
282
 21
327.5
  0
LINE
  8
_0-0__
  6
CONTINUOUS
 62
    7
 10
312
 20
307.5
 11
312
 21
327.5
  0
ARC
  8
_0-0__
  6
CONTINUOUS
 62
    1
 10
297
 20
363.5
 40
39
 50
247.38013505195957
 51
292.6198649480404
  0
SOLID
  8
_0-0__
  6
CONTINUOUS
 62
    9
 10
282
 20
327.5
 11
282
 21
307.5
 12
312
 22
307.5
 13
312
 23
307.5
  0
SOLID
  8
_0-0__
  6
CONTINUOUS
 62
    9
 10
312
 20
307.5
 11
312
 21
327.5
 12
297
 22
321.25
 13
297
 23
321.25
  0
SOLID
  8
_0-0__
  6
CONTINUOUS
 62
    9
 10
312
 20
307.5
 11
297
 21
321.25
 12
282
 22
327.5
 13
282
 23
327.5
  0
LINE
  8
_0-0__
  6
CONTINUOUS
 62
    7
 10
282
 20
327.5
 11
132
 21
327.5
  0
LINE
  8
_0-0__
  6
CONTINUOUS
 62
    7
 10
462
 20
327.5
 11
312
 21
327.5
  0
LINE
  8
_0-0__
  6
DASHED1
 62
    7
 10
462
 20
307.5
 11
132
 21
307.5
  0
POINT
  8
_0-0__
 62
   18
 10
302
 20
317.5
  0
TEXT
  8
_0-0__
 62
    7
 10
323.00000000000045
 20
315
 40
5
 41
1
 50
0
  1
シーリング
  0
LINE
  8
_0-0__
  6
CONTINUOUS
 62
    7
 10
322.00000000000045
 20
317.5
 11
302
 21
317.5
  0
POINT
  8
_0-0__
 62
   18
 10
302
 20
300
  0
LINE
  8
_0-0__
  6
CONTINUOUS
 62
    7
 10
322.00000000000045
 20
300
 11
302
 21
300
  0
TEXT
  8
_0-0__
 62
    7
 10
323.00000000000045
 20
297.5
 40
5
 41
1
 50
0
  1
粘付バッカー
  0
POINT
  8
_0-0__
 62
   18
 10
282.5
 20
300
  0
LINE
  8
_0-0__
  6
CONTINUOUS
 62
    7
 10
271.99999999999955
 20
300
 11
282.5
 21
300
  0
TEXT
  8
_0-0__
 62
    7
 10
132
 20
327.5
 40
5
 41
1
 50
0
  1
外部側
  0
LINE
  8
_0-0__
  6
CONTINUOUS
 62
    5
 10
132
 20
196.5
 11
263
 21
327.5
  0
LINE
  8
_0-0__
  6
CONTINUOUS
 62
    5
 10
132
 20
199.5
 11
260
 21
327.5
  0
LINE
  8
_0-0__
  6
CONTINUOUS
 62
    5
 10
132
 20
202.5
 11
257
 21
327.5
  0
TEXT
  8
_0-0__
 62
    7
 10
132
 20
137.5
 40
5
 41
1
 50
0
  1
内部側
  0
LINE
  8
_0-0__
  6
CONTINUOUS
 62
    7
 10
362
 20
92.5
 11
362
 21
142.5
  0
LINE
  8
_0-0__
  6
CONTINUOUS
 62
    7
 10
362
 20
142.5
 11
132
 21
142.5
  0
LINE
  8
_0-0__
  6
CONTINUOUS
 62
    7
 10
362
 20
92.22906294761836
 11
362
 21
142.5
  0
LINE
  8
_0-0__
  6
CONTINUOUS
 62
   18
 10
312
 20
292.5
 11
312
 21
142.5
  0
LINE
  8
_0-0__
  6
CONTINUOUS
 62
   18
 10
282
 20
292.5
 11
282
 21
142.5
  0
LINE
  8
_0-0__
  6
CONTINUOUS
 62
   18
 10
312
 20
142.5
 11
282
 21
142.5
  0
LINE
  8
_0-0__
  6
CONTINUOUS
 62
    7
 10
322.00000000000045
 20
219
 11
302
 21
219
  0
POINT
  8
_0-0__
 62
   18
 10
302
 20
219
  0
TEXT
  8
_0-0__
 62
    7
 10
144.50000000000023
 20
232.5
 40
5
 41
1
 50
0
  1
壁
  0
LINE
  8
_0-0__
  6
CONTINUOUS
 62
    7
 10
142.00000000000011
 20
240.00000000000006
 11
142.00000000000011
 21
229.99999999999994
  0
LINE
  8
_0-0__
  6
CONTINUOUS
 62
    7
 10
152.00000000000023
 20
240.00000000000006
 11
142.00000000000011
 21
240.00000000000006
  0
LINE
  8
_0-0__
  6
CONTINUOUS
 62
    7
 10
152.00000000000023
 20
229.99999999999994
 11
152.00000000000023
 21
240.00000000000006
  0
LINE
  8
_0-0__
  6
CONTINUOUS
 62
    7
 10
142.00000000000011
 20
229.99999999999994
 11
152.00000000000023
 21
229.99999999999994
  0
TEXT
  8
_0-0__
 62
    7
 10
444.49999999999989
 20
232.5
 40
5
 41
1
 50
0
  1
柱
  0
LINE
  8
_0-0__
  6
CONTINUOUS
 62
    7
 10
441.99999999999977
 20
240.00000000000006
 11
441.99999999999977
 21
229.99999999999994
  0
LINE
  8
_0-0__
  6
CONTINUOUS
 62
    7
 10
451.99999999999989
 20
240.00000000000006
 11
441.99999999999977
 21
240.00000000000006
  0
LINE
  8
_0-0__
  6
CONTINUOUS
 62
    7
 10
451.99999999999989
 20
229.99999999999994
 11
451.99999999999989
 21
240.00000000000006
  0
LINE
  8
_0-0__
  6
CONTINUOUS
 62
    7
 10
441.99999999999977
 20
229.99999999999994
 11
451.99999999999989
 21
229.99999999999994
  0
LINE
  8
_0-0__
  6
CONTINUOUS
 62
   18
 10
312
 20
242.49999999999997
 11
282
 21
242.49999999999997
  0
LINE
  8
_0-0__
  6
CONTINUOUS
 62
   18
 10
312
 20
192.5
 11
282
 21
192.5
  0
LINE
  8
_0-0__
  6
CONTINUOUS
 62
   18
 10
311.79999999999995
 20
242.29999999999993
 11
282.19999999999982
 21
242.29999999999993
  0
LINE
  8
_0-0__
  6
CONTINUOUS
 62
   18
 10
311.79999999999995
 20
192.70000000000005
 11
282.19999999999982
 21
192.70000000000005
  0
LINE
  8
_0-0__
  6
CONTINUOUS
 62
   18
 10
311.79999999999995
 20
242.29999999999993
 11
311.79999999999995
 21
192.70000000000005
  0
LINE
  8
_0-0__
  6
CONTINUOUS
 62
    5
 10
311.30000000000018
 20
241.49999999999997
 11
284.19999999999982
 21
241.49999999999997
  0
ARC
  8
_0-0__
  6
CONTINUOUS
 62
    5
 10
309.80000000000018
 20
236.99999999999997
 40
1.5
 50
270
 51
90
  0
ARC
  8
_0-0__
  6
CONTINUOUS
 62
    5
 10
309.80000000000018
 20
230.99999999999997
 40
1.5
 50
270
 51
90
  0
ARC
  8
_0-0__
  6
CONTINUOUS
 62
    5
 10
309.80000000000018
 20
224.99999999999997
 40
1.5
 50
270
 51
90
  0
ARC
  8
_0-0__
  6
CONTINUOUS
 62
    5
 10
309.80000000000018
 20
218.99999999999997
 40
1.5
 50
270
 51
90
  0
ARC
  8
_0-0__
  6
CONTINUOUS
 62
    5
 10
309.80000000000018
 20
212.99999999999997
 40
1.5
 50
270
 51
90
  0
ARC
  8
_0-0__
  6
CONTINUOUS
 62
    5
 10
309.80000000000018
 20
206.99999999999997
 40
1.5
 50
270
 51
90
  0
ARC
  8
_0-0__
  6
CONTINUOUS
 62
    5
 10
309.80000000000018
 20
201
 40
1.5
 50
270
 51
90
  0
ARC
  8
_0-0__
  6
CONTINUOUS
 62
    5
 10
309.80000000000018
 20
195
 40
1.5
 50
270
 51
90
  0
LINE
  8
_0-0__
  6
CONTINUOUS
 62
    5
 10
309.80000000000018
 20
238.49999999999997
 11
284.19999999999982
 21
238.49999999999997
  0
LINE
  8
_0-0__
  6
CONTINUOUS
 62
    5
 10
309.80000000000018
 20
235.49999999999997
 11
284.19999999999982
 21
235.49999999999997
  0
LINE
  8
_0-0__
  6
CONTINUOUS
 62
    5
 10
309.80000000000018
 20
229.49999999999997
 11
284.19999999999982
 21
229.49999999999997
  0
LINE
  8
_0-0__
  6
CONTINUOUS
 62
    5
 10
309.80000000000018
 20
232.49999999999997
 11
284.19999999999982
 21
232.49999999999997
  0
LINE
  8
_0-0__
  6
CONTINUOUS
 62
    5
 10
309.80000000000018
 20
223.49999999999997
 11
284.19999999999982
 21
223.49999999999997
  0
LINE
  8
_0-0__
  6
CONTINUOUS
 62
    5
 10
309.80000000000018
 20
226.49999999999997
 11
284.19999999999982
 21
226.49999999999997
  0
LINE
  8
_0-0__
  6
CONTINUOUS
 62
    5
 10
309.80000000000018
 20
199.5
 11
284.19999999999982
 21
199.5
  0
LINE
  8
_0-0__
  6
CONTINUOUS
 62
    5
 10
309.80000000000018
 20
202.49999999999997
 11
284.19999999999982
 21
202.49999999999997
  0
LINE
  8
_0-0__
  6
CONTINUOUS
 62
    5
 10
309.80000000000018
 20
205.49999999999997
 11
284.19999999999982
 21
205.49999999999997
  0
LINE
  8
_0-0__
  6
CONTINUOUS
 62
    5
 10
309.80000000000018
 20
208.49999999999997
 11
284.19999999999982
 21
208.49999999999997
  0
LINE
  8
_0-0__
  6
CONTINUOUS
 62
    5
 10
309.80000000000018
 20
211.49999999999997
 11
284.19999999999982
 21
211.49999999999997
  0
LINE
  8
_0-0__
  6
CONTINUOUS
 62
    5
 10
309.80000000000018
 20
214.49999999999997
 11
284.19999999999982
 21
214.49999999999997
  0
LINE
  8
_0-0__
  6
CONTINUOUS
 62
    5
 10
309.80000000000018
 20
217.49999999999997
 11
284.19999999999982
 21
217.49999999999997
  0
LINE
  8
_0-0__
  6
CONTINUOUS
 62
    5
 10
309.80000000000018
 20
220.49999999999997
 11
284.19999999999982
 21
220.49999999999997
  0
LINE
  8
_0-0__
  6
CONTINUOUS
 62
    5
 10
309.80000000000018
 20
196.5
 11
284.19999999999982
 21
196.5
  0
LINE
  8
_0-0__
  6
CONTINUOUS
 62
    5
 10
309.80000000000018
 20
193.5
 11
282.69999999999982
 21
193.5
  0
LINE
  8
_0-0__
  6
CONTINUOUS
 62
   18
 10
282.19999999999982
 20
242.29999999999993
 11
282.19999999999982
 21
192.70000000000005
  0
ARC
  8
_0-0__
  6
CONTINUOUS
 62
    5
 10
284.19999999999982
 20
239.99999999999997
 40
1.5
 50
90
 51
270
  0
ARC
  8
_0-0__
  6
CONTINUOUS
 62
    5
 10
284.19999999999982
 20
233.99999999999997
 40
1.5
 50
90
 51
270
  0
ARC
  8
_0-0__
  6
CONTINUOUS
 62
    5
 10
284.19999999999982
 20
227.99999999999997
 40
1.5
 50
90
 51
270
  0
ARC
  8
_0-0__
  6
CONTINUOUS
 62
    5
 10
284.19999999999982
 20
221.99999999999997
 40
1.5
 50
90
 51
270
  0
ARC
  8
_0-0__
  6
CONTINUOUS
 62
    5
 10
284.19999999999982
 20
215.99999999999997
 40
1.5
 50
90
 51
270
  0
ARC
  8
_0-0__
  6
CONTINUOUS
 62
    5
 10
284.19999999999982
 20
209.99999999999997
 40
1.5
 50
90
 51
270
  0
ARC
  8
_0-0__
  6
CONTINUOUS
 62
    5
 10
284.19999999999982
 20
203.99999999999997
 40
1.5
 50
90
 51
270
  0
ARC
  8
_0-0__
  6
CONTINUOUS
 62
    5
 10
284.19999999999982
 20
198
 40
1.5
 50
90
 51
270
  0
POINT
  8
_0-0__
 62
   18
 10
302
 20
267.5
  0
LINE
  8
_0-0__
  6
CONTINUOUS
 62
    7
 10
322.00000000000045
 20
267.5
 11
302
 21
267.5
  0
TEXT
  8
_0-0__
 62
    7
 10
323.00000000000045
 20
265
 40
5
 41
1
 50
0
  1
ポリエチレン
  0
TEXT
  8
_0-0__
 62
    7
 10
323.00000000000045
 20
259
 40
5
 41
1
 50
0
  1
独立気泡発泡体
  0
POINT
  8
_0-0__
 62
   18
 10
302
 20
167.5
  0
LINE
  8
_0-0__
  6
CONTINUOUS
 62
    7
 10
322.00000000000045
 20
167.5
 11
302
 21
167.5
  0
TEXT
  8
_0-0__
 62
    7
 10
323.00000000000045
 20
165
 40
5
 41
1
 50
0
  1
ポリエチレン
  0
TEXT
  8
_0-0__
 62
    7
 10
323.00000000000045
 20
159
 40
5
 41
1
 50
0
  1
独立気泡発泡体
  0
LINE
  8
_0-0__
  6
CONTINUOUS
 62
    5
 10
317
 20
142.5
 11
332.53731343283584
 21
158.03731343283582
  0
LINE
  8
_0-0__
  6
CONTINUOUS
 62
    5
 10
345.48400852878467
 20
170.98400852878464
 11
462
 21
287.5
  0
LINE
  8
_0-0__
  6
CONTINUOUS
 62
    5
 10
320
 20
142.5
 11
335.53731343283584
 21
158.03731343283582
  0
LINE
  8
_0-0__
  6
CONTINUOUS
 62
    5
 10
348.48400852878467
 20
170.98400852878464
 11
462
 21
284.5
  0
LINE
  8
_0-0__
  6
CONTINUOUS
 62
    5
 10
323
 20
142.5
 11
338.53731343283584
 21
158.03731343283582
  0
LINE
  8
_0-0__
  6
CONTINUOUS
 62
    5
 10
351.48400852878467
 20
170.98400852878464
 11
462
 21
281.5
  0
TEXT
  8
_0-0__
 62
    7
 10
240.99999999999955
 20
297.5
 40
5
 41
1
 50
0
  1
ブチルシート
  0
TEXT
  8
_0-0__
 62
    2
 10
371.35000000000002
 20
28.089999999999975
 40
4.4000000000000004
 41
1
 50
0
  1
ＮＮソフトロックウールブチルシート付 納まり図
  0
TEXT
  8
_0-0__
 62
    2
 10
400.10000000000002
 20
33.089999999999975
 40
4.4000000000000004
 41
1
 50
0
  1
耐震改修専用スリット
  0
POINT
  8
_0-0__
 62
    7
 10
312
 20
130.5
  0
LINE
  8
_0-0__
  6
CONTINUOUS
 62
    7
 10
312
 20
130.5
 11
312
 21
137.5
  0
LINE
  8
_1-0__
  6
CONTINUOUS
 62
    7
 10
312
 20
130.5
 11
282
 21
130.5
  0
TEXT
  8
_0-0__
 62
    7
 10
294.5
 20
130.70000000000005
 40
5
 41
1
 50
0
  1
30
  0
POINT
  8
_0-0__
 62
    7
 10
282
 20
130.5
  0
LINE
  8
_0-0__
  6
CONTINUOUS
 62
    7
 10
282
 20
130.5
 11
282
 21
137.5
  0
LINE
  8
_0-0__
  6
CONTINUOUS
 62
    7
 10
26.999999999999886
 20
393.89999999999998
 11
26.999999999999886
 21
373.89999999999998
  0
TEXT
  8
_0-0__
 62
    2
 10
390.85000000000008
 20
17.889999999999986
 40
4.4000000000000004
 41
1
 50
0
  1
ＮＮ－３０Ｒ(ブチルシート付)
  0
TEXT
  8
_0-0__
 62
    7
 10
28.999999999999886
 20
376.89999999999998
 40
14
 41
1
 50
0
  1
ＮＮ－３０Ｒ(ブチルシート付)
  0
LINE
  8
_0-0__
  6
CONTINUOUS
 62
    7
 10
226.99999999999989
 20
393.89999999999998
 11
26.999999999999886
 21
393.89999999999998
  0
LINE
  8
_0-0__
  6
CONTINUOUS
 62
    7
 10
226.99999999999989
 20
373.89999999999998
 11
226.99999999999989
 21
393.89999999999998
  0
LINE
  8
_0-0__
  6
CONTINUOUS
 62
    7
 10
26.999999999999886
 20
373.89999999999998
 11
226.99999999999989
 21
373.89999999999998
  0
TEXT
  8
_0-0__
 62
    7
 10
323.00000000000045
 20
216.5
 40
5
 41
1
 50
0
  1
ロックウール
  0
TEXT
  8
_0-0__
 62
    7
 10
269.79999999999995
 20
207.5
 40
5
 41
1
 50
90
  1
製品寸法
  0
LINE
  8
_0-0__
  6
CONTINUOUS
 62
    7
 10
270
 20
292.5
 11
277
 21
292.5
  0
POINT
  8
_0-0__
 62
   18
 10
270
 20
292.5
  0
LINE
  8
_0-0__
  6
CONTINUOUS
 62
    7
 10
270
 20
292.5
 11
270
 21
142.5
  0
POINT
  8
_0-0__
 62
   18
 10
270
 20
142.5
  0
TEXT
  8
_0-0__
 62
    7
 10
256.80849887332408
 20
23.160000000000025
 40
3.6000000000000001
 41
1
 50
0
  1
https://www.axis-slit.com/pailon/
  0
ENDSEC
  0
EOF
