  0
SECTION
  2
HEADER
  9
$ACADVER
  1
AC1009
  9
$INSBASE
 10
0
 20
0
 30
0
  9
$EXTMIN
 10
0
 20
0
  9
$EXTMAX
 10
594
 20
420
  9
$LIMMIN
 10
0
 20
0
  9
$LIMMAX
 10
594
 20
420
  9
$LTSCALE
 40
2
  0
ENDSEC
  0
SECTION
  2
TABLES
  0
TABLE
  2
LTYPE
 70
     9
  0
LTYPE
  2
CONTINUOUS
 70
    64
  3
実線
 72
    65
 73
     0
 40
0.0
  0
LTYPE
  2
DASHED1
 70
    64
  3
--  --  --  --  --  --  --  --  
 72
    65
 73
     2
 40
2.5
 49
1.25
 49
-1.25
  0
LTYPE
  2
DASHED2
 70
    64
  3
----    ----    ----    ----    
 72
    65
 73
     2
 40
5.0
 49
2.5
 49
-2.5
  0
LTYPE
  2
DASHED3
 70
    64
  3
------  ------  ------  ------  
 72
    65
 73
     2
 40
5.0
 49
3.75
 49
-1.25
  0
LTYPE
  2
CENTER1
 70
    64
  3
----- - ----- - ----- - ----- - 
 72
    65
 73
     4
 40
10.0
 49
6.25
 49
-1.25
 49
1.25
 49
-1.25
  0
LTYPE
  2
CENTER2
 70
    64
  3
----------  --  ----------  --  
 72
    65
 73
     4
 40
20.0
 49
12.5
 49
-2.5
 49
2.5
 49
-2.5
  0
LTYPE
  2
PHANTOM1
 70
    64
  3
--- - - --- - - --- - - --- - - 
 72
    65
 73
     6
 40
10.0
 49
3.25
 49
-1.25
 49
1.25
 49
-1.25
 49
1.25
 49
-1.25
  0
LTYPE
  2
PHANTOM2
 70
    64
  3
--------  -  -  --------  -  -  
 72
    65
 73
     6
 40
20.0
 49
10.0
 49
-2.5
 49
1.25
 49
-2.5
 49
1.25
 49
-2.5
  0
LTYPE
  2
DOT
 70
    64
  3
-   -   -   -   -   -   -   -   
 72
    65
 73
     2
 40
2.5
 49
0.625
 49
-1.875
  0
LTYPE
  2
DUMMY
 70
    64
  3
ダミー
 72
    65
 73
     0
 40
0.0
  0
LTYPE
  2
RAND1
 70
    64
  3
ランダム線1
 72
    65
 73
     4
 40
10.0
 49
1.0
 49
-2.0
 49
3.0
 49
-4.0
  0
LTYPE
  2
RAND2
 70
    64
  3
ランダム線2
 72
    65
 73
     4
 40
14.0
 49
2.0
 49
-3.0
 49
4.0
 49
-5.0
  0
LTYPE
  2
RAND3
 70
    64
  3
ランダム線3
 72
    65
 73
     4
 40
18.0
 49
3.0
 49
-4.0
 49
5.0
 49
-6.0
  0
LTYPE
  2
RAND4
 70
    64
  3
ランダム線4
 72
    65
 73
     4
 40
22.0
 49
4.0
 49
-5.0
 49
6.0
 49
-7.0
  0
LTYPE
  2
RAND5
 70
    64
  3
ランダム線5
 72
    65
 73
     4
 40
26.0
 49
5.0
 49
-6.0
 49
7.0
 49
-8.0
  0
LTYPE
  2
LONG1
 70
    64
  3
----------  --  ----------  --  
 72
    65
 73
     4
 40
40.0
 49
32.5
 49
-2.5
 49
2.5
 49
-2.5
  0
LTYPE
  2
LONG2
 70
    64
  3
--------  -  -  --------  -  -  
 72
    65
 73
     6
 40
40.0
 49
30.0
 49
-2.5
 49
1.25
 49
-2.5
 49
1.25
 49
-2.5
  0
LTYPE
  2
LONG3
 70
    64
  3
+++++++++++++++..+++++++++++++++
 72
    65
 73
     2
 40
40.0
 49
37.5
 49
-2.5
  0
LTYPE
  2
LONG4
 70
    64
  3
+++++++++++++++..+++++++++++++++
 72
    65
 73
     2
 40
80.0
 49
75.0
 49
-5.0
  0
LTYPE
  2
LONG5
 70
    64
  3
----------  --  ----------  --  
 72
    65
 73
     4
 40
60.0
 49
37.5
 49
-7.5
 49
7.5
 49
-7.5
  0
LTYPE
  2
dashed
 70
   64
  3
-------   -------------   ------
 72
   65
 73
    2
 40
7.5
 49
6
 49
-1.5
  0
LTYPE
  2
dashed_spaced
 70
   64
  3
----        --------        ----
 72
   65
 73
    2
 40
12
 49
6
 49
-6
  0
LTYPE
  2
long_dashed_dotted
 70
   64
  3
------------- --- --------------
 72
   65
 73
    4
 40
15.25
 49
12
 49
-1.5
 49
0.25
 49
-1.5
  0
LTYPE
  2
long_dashed_double-dotted
 70
   64
  3
----------- --- --- ------------
 72
   65
 73
    6
 40
17
 49
12
 49
-1.5
 49
0.25
 49
-1.5
 49
0.25
 49
-1.5
  0
LTYPE
  2
long_dashed_triplicate-dotted
 70
   64
  3
--------- --- --- --- ----------
 72
   65
 73
    8
 40
18.75
 49
12
 49
-1.5
 49
0.25
 49
-1.5
 49
0.25
 49
-1.5
 49
0.25
 49
-1.5
  0
LTYPE
  2
dotted
 70
   64
  3
   -       -       -       -    
 72
   65
 73
    2
 40
1.75
 49
0.25
 49
-1.5
  0
LTYPE
  2
chain
 70
   64
  3
-------------- -- --------------
 72
   65
 73
    4
 40
18.5
 49
12
 49
-1.5
 49
3.5
 49
-1.5
  0
LTYPE
  2
chain_double_dash
 70
   64
  3
------------ -- -- -------------
 72
   65
 73
    6
 40
23.5
 49
12
 49
-1.5
 49
3.5
 49
-1.5
 49
3.5
 49
-1.5
  0
LTYPE
  2
dashed_dotted
 70
   64
  3
-----------     -     ----------
 72
   65
 73
    4
 40
9.25
 49
6
 49
-1.5
 49
0.25
 49
-1.5
  0
LTYPE
  2
double-dashed_dotted
 70
   64
  3
------   -----------   -   -----
 72
   65
 73
    6
 40
16.75
 49
6
 49
-1.5
 49
6
 49
-1.5
 49
0.25
 49
-1.5
  0
LTYPE
  2
dashed_double-dotted
 70
   64
  3
---------    -    -    ---------
 72
   65
 73
    6
 40
11
 49
6
 49
-1.5
 49
0.25
 49
-1.5
 49
0.25
 49
-1.5
  0
LTYPE
  2
double-dashed_double-dotted
 70
   64
  3
-----   ---------   -   -   ----
 72
   65
 73
    8
 40
18.5
 49
6
 49
-1.5
 49
6
 49
-1.5
 49
0.25
 49
-1.5
 49
0.25
 49
-1.5
  0
LTYPE
  2
dashed_triplicate-dotted
 70
   64
  3
-------    -    -    -    ------
 72
   65
 73
    8
 40
12.75
 49
6
 49
-1.5
 49
0.25
 49
-1.5
 49
0.25
 49
-1.5
 49
0.25
 49
-1.5
  0
LTYPE
  2
double-dashed_triplicate-dotted
 70
   64
  3
-----  ---------  -  -  -  -----
 72
   65
 73
   10
 40
20.25
 49
6
 49
-1.5
 49
6
 49
-1.5
 49
0.25
 49
-1.5
 49
0.25
 49
-1.5
 49
0.25
 49
-1.5
  0
LTYPE
  2
undefined
 70
   64
  3
--------------------------------
 72
   65
 73
    0
 40
0
  0
ENDTAB
  0
TABLE
  2
STYLE
  5
3
100
AcDbSymbolTable
 70
     1
  0
STYLE
  5
10
100
AcDbSymbolTableRecord
100
AcDbTextStyleTableRecord
  2
STANDARD
 70
     0
 40
0.0
 41
1.0
 50
0.0
 71
     0
 42
0.2
  3
txt
  4
bigfont.shx
  0
STYLE
  5
26
100
AcDbSymbolTableRecord
100
AcDbTextStyleTableRecord
  2
TATEGAKI
 70
    68
 40
0.0
 41
1.0
 50
0.0
 71
     0
 42
1.0
  3
txt
  4
bigfont.shx
  0
ENDTAB
  0
TABLE
  2
LAYER
 70
    2
  0
LAYER
  2
_0-0__
 70
   64
 62
    7
  6
CONTINUOUS
  0
LAYER
  2
ADD_LINE
 70
   64
 62
    7
  6
CONTINUOUS
  0
ENDTAB
  0
ENDSEC
  0
SECTION
  2
BLOCKS
  0
ENDSEC
  0
SECTION
  2
ENTITIES
  0
LINE
  8
_0-0__
  6
DASHED1
 62
    7
 10
178
 20
21.699999999999989
 11
38
 21
21.699999999999989
  0
LINE
  8
_0-0__
  6
DASHED1
 62
    7
 10
178
 20
32.899999999999977
 11
38
 21
32.899999999999977
  0
LINE
  8
_0-0__
  6
CONTINUOUS
 62
    7
 10
38
 20
16.099999999999994
 11
38
 21
38.499999999999972
  0
LINE
  8
_0-0__
  6
DASHED1
 62
    7
 10
65.999999999999972
 20
16.099999999999994
 11
65.999999999999972
 21
38.499999999999972
  0
LINE
  8
_0-0__
  6
CONTINUOUS
 62
    7
 10
577
 20
403.89999999999998
 11
577
 21
16.099999999999994
  0
LINE
  8
_0-0__
  6
CONTINUOUS
 62
    7
 10
577
 20
16.099999999999994
 11
17
 21
16.099999999999994
  0
LINE
  8
_0-0__
  6
CONTINUOUS
 62
    7
 10
17
 20
403.89999999999998
 11
577
 21
403.89999999999998
  0
LINE
  8
_0-0__
  6
CONTINUOUS
 62
    7
 10
17
 20
16.099999999999994
 11
17
 21
403.89999999999998
  0
LINE
  8
_0-0__
  6
CONTINUOUS
 62
    7
 10
507
 20
27.299999999999983
 11
507
 21
16.099999999999994
  0
LINE
  8
_0-0__
  6
CONTINUOUS
 62
    7
 10
535
 20
27.299999999999983
 11
367
 21
27.299999999999983
  0
LINE
  8
_0-0__
  6
CONTINUOUS
 62
    7
 10
535
 20
38.499999999999972
 11
535
 21
16.099999999999994
  0
LINE
  8
_0-0__
  6
CONTINUOUS
 62
    7
 10
577
 20
38.499999999999972
 11
17
 21
38.499999999999972
  0
LINE
  8
_0-0__
  6
CONTINUOUS
 62
    7
 10
577
 20
39.199999999999989
 11
17
 21
39.199999999999989
  0
LINE
  8
_0-0__
  6
CONTINUOUS
 62
    7
 10
479
 20
38.499999999999972
 11
479
 21
16.099999999999994
  0
LINE
  8
_0-0__
  6
CONTINUOUS
 62
    7
 10
367
 20
38.499999999999972
 11
367
 21
16.099999999999994
  0
LINE
  8
_0-0__
  6
CONTINUOUS
 62
    7
 10
178
 20
16.099999999999994
 11
178
 21
38.499999999999972
  0
LINE
  8
_0-0__
  6
DASHED1
 62
    7
 10
178
 20
27.299999999999983
 11
38
 21
27.299999999999983
  0
LINE
  8
_0-0__
  6
CONTINUOUS
 62
    7
 10
577.27999999999997
 20
404.18000000000001
 11
16.71999999999997
 21
404.18000000000001
  0
LINE
  8
_0-0__
  6
CONTINUOUS
 62
    7
 10
16.71999999999997
 20
404.18000000000001
 11
16.71999999999997
 21
15.819999999999993
  0
LINE
  8
_0-0__
  6
CONTINUOUS
 62
    7
 10
577.27999999999997
 20
15.819999999999993
 11
577.27999999999997
 21
404.18000000000001
  0
LINE
  8
_0-0__
  6
CONTINUOUS
 62
    7
 10
16.71999999999997
 20
15.819999999999993
 11
577.27999999999997
 21
15.819999999999993
  0
LINE
  8
ADD_LINE
  6
DOT
 62
    9
 10
16.71999999999997
 20
404.18000000000001
 11
577.27999999999997
 21
15.819999999999993
  0
LINE
  8
ADD_LINE
  6
DOT
 62
    9
 10
16.71999999999997
 20
15.819999999999993
 11
577.27999999999997
 21
404.18000000000001
  0
TEXT
  8
_0-0__
 62
    7
 10
24.200000000000102
 20
25.699999999999989
 40
3.2000000000000002
 41
1
 50
0
  1
改訂
  0
TEXT
  8
_0-0__
 62
    7
 10
369
 20
23.099999999999994
 40
3.2000000000000002
 41
1
 50
0
  1
図面名
  0
TEXT
  8
_0-0__
 62
    7
 10
369
 20
34.299999999999983
 40
3.2000000000000002
 41
1
 50
0
  1
件名
  0
TEXT
  8
_0-0__
 62
    7
 10
481
 20
34.299999999999983
 40
3.2000000000000002
 41
1
 50
0
  1
DATE
  0
TEXT
  8
_0-0__
 62
    7
 10
481
 20
23.099999999999994
 40
3.2000000000000002
 41
1
 50
0
  1
SCALE
  0
TEXT
  8
_0-0__
 62
    7
 10
509.00000000000006
 20
23.099999999999994
 40
3.2000000000000002
 41
1
 50
0
  1
担当
  0
TEXT
  8
_0-0__
 62
    7
 10
537
 20
34.299999999999983
 40
3.2000000000000002
 41
1
 50
0
  1
図面№
  0
TEXT
  8
_0-0__
 62
    7
 10
256.80849887332408
 20
32.360000000000014
 40
3.6000000000000001
 41
1
 50
0
  1
〒166-0004　東京都杉並区阿佐谷南1-33-1　第二東都ビル2F
  0
TEXT
  8
_0-0__
 62
    2
 10
485
 20
17.889999999999986
 40
4.4000000000000004
 41
1
 50
0
  1
A4：1/2
  0
TEXT
  8
_0-0__
 62
    7
 10
256.80849887332408
 20
27.759999999999991
 40
3.6000000000000001
 41
1
 50
0
  1
TEL：03(5305)4322 / FAX：03(3316)4177
  0
TEXT
  8
_0-0__
 62
    7
 10
256.80849887332408
 20
18.560000000000059
 40
3.6000000000000001
 41
1
 50
0
  1
e-mail：info@pailon.co.jp
  0
TEXT
  8
_0-0__
 62
    7
 10
196.10869565217394
 20
24.652173913043498
 40
6
 41
1
 50
0
  1
パイロン株式会社
  0
TEXT
  8
_0-0__
 62
    2
 10
409.30000000000007
 20
17.889999999999986
 40
4.4000000000000004
 41
1
 50
0
  1
ＮＮ－３０Ｒ
  0
TEXT
  8
_0-0__
 62
    2
 10
495.55000000000013
 20
29.089999999999975
 40
4.4000000000000004
 41
1
 50
0
  1
2021/11/01
  0
TEXT
  8
_0-0__
 62
    7
 10
131.99999999999997
 20
144.99999999999994
 40
5
 41
1
 50
0
  1
内部側
  0
LINE
  8
_0-0__
  6
CONTINUOUS
 62
    7
 10
362
 20
99.999999999999943
 11
362
 21
149.99999999999994
  0
LINE
  8
_0-0__
  6
CONTINUOUS
 62
    7
 10
362
 20
149.99999999999994
 11
131.99999999999997
 21
149.99999999999994
  0
LINE
  8
_0-0__
  6
CONTINUOUS
 62
    7
 10
362
 20
99.729062947618331
 11
362
 21
149.99999999999994
  0
LINE
  8
_0-0__
  6
CONTINUOUS
 62
   18
 10
312
 20
299.99999999999994
 11
312
 21
149.99999999999994
  0
LINE
  8
_0-0__
  6
CONTINUOUS
 62
   18
 10
282
 20
299.99999999999994
 11
282
 21
149.99999999999994
  0
LINE
  8
_0-0__
  6
CONTINUOUS
 62
   18
 10
312
 20
149.99999999999994
 11
282
 21
149.99999999999994
  0
LINE
  8
_0-0__
  6
CONTINUOUS
 62
    7
 10
322.00000000000045
 20
226.49999999999994
 11
302
 21
226.49999999999994
  0
POINT
  8
_0-0__
 62
   18
 10
302
 20
226.49999999999994
  0
TEXT
  8
_0-0__
 62
    7
 10
144.5000000000002
 20
239.99999999999994
 40
5
 41
1
 50
0
  1
壁
  0
LINE
  8
_0-0__
  6
CONTINUOUS
 62
    7
 10
142.00000000000009
 20
247.50000000000006
 11
142.00000000000009
 21
237.49999999999994
  0
LINE
  8
_0-0__
  6
CONTINUOUS
 62
    7
 10
152.0000000000002
 20
247.50000000000006
 11
142.00000000000009
 21
247.50000000000006
  0
LINE
  8
_0-0__
  6
CONTINUOUS
 62
    7
 10
152.0000000000002
 20
237.49999999999994
 11
152.0000000000002
 21
247.50000000000006
  0
LINE
  8
_0-0__
  6
CONTINUOUS
 62
    7
 10
142.00000000000009
 20
237.49999999999994
 11
152.0000000000002
 21
237.49999999999994
  0
TEXT
  8
_0-0__
 62
    7
 10
444.49999999999989
 20
239.99999999999994
 40
5
 41
1
 50
0
  1
柱
  0
LINE
  8
_0-0__
  6
CONTINUOUS
 62
    7
 10
441.99999999999977
 20
247.50000000000006
 11
441.99999999999977
 21
237.49999999999994
  0
LINE
  8
_0-0__
  6
CONTINUOUS
 62
    7
 10
451.99999999999989
 20
247.50000000000006
 11
441.99999999999977
 21
247.50000000000006
  0
LINE
  8
_0-0__
  6
CONTINUOUS
 62
    7
 10
451.99999999999989
 20
237.49999999999994
 11
451.99999999999989
 21
247.50000000000006
  0
LINE
  8
_0-0__
  6
CONTINUOUS
 62
    7
 10
441.99999999999977
 20
237.49999999999994
 11
451.99999999999989
 21
237.49999999999994
  0
LINE
  8
_0-0__
  6
CONTINUOUS
 62
   18
 10
312
 20
249.99999999999994
 11
282
 21
249.99999999999994
  0
LINE
  8
_0-0__
  6
CONTINUOUS
 62
   18
 10
312
 20
199.99999999999994
 11
282
 21
199.99999999999994
  0
LINE
  8
_0-0__
  6
CONTINUOUS
 62
   18
 10
311.79999999999995
 20
249.7999999999999
 11
282.19999999999982
 21
249.7999999999999
  0
LINE
  8
_0-0__
  6
CONTINUOUS
 62
   18
 10
311.79999999999995
 20
200.19999999999999
 11
282.19999999999982
 21
200.19999999999999
  0
LINE
  8
_0-0__
  6
CONTINUOUS
 62
   18
 10
311.79999999999995
 20
249.7999999999999
 11
311.79999999999995
 21
200.19999999999999
  0
LINE
  8
_0-0__
  6
CONTINUOUS
 62
    5
 10
311.30000000000018
 20
248.99999999999994
 11
284.19999999999982
 21
248.99999999999994
  0
ARC
  8
_0-0__
  6
CONTINUOUS
 62
    5
 10
309.80000000000018
 20
244.49999999999994
 40
1.5
 50
270
 51
90
  0
ARC
  8
_0-0__
  6
CONTINUOUS
 62
    5
 10
309.80000000000018
 20
238.49999999999994
 40
1.5
 50
270
 51
90
  0
ARC
  8
_0-0__
  6
CONTINUOUS
 62
    5
 10
309.80000000000018
 20
232.49999999999994
 40
1.5
 50
270
 51
90
  0
ARC
  8
_0-0__
  6
CONTINUOUS
 62
    5
 10
309.80000000000018
 20
226.49999999999994
 40
1.5
 50
270
 51
90
  0
ARC
  8
_0-0__
  6
CONTINUOUS
 62
    5
 10
309.80000000000018
 20
220.49999999999994
 40
1.5
 50
270
 51
90
  0
ARC
  8
_0-0__
  6
CONTINUOUS
 62
    5
 10
309.80000000000018
 20
214.49999999999994
 40
1.5
 50
270
 51
90
  0
ARC
  8
_0-0__
  6
CONTINUOUS
 62
    5
 10
309.80000000000018
 20
208.49999999999994
 40
1.5
 50
270
 51
90
  0
ARC
  8
_0-0__
  6
CONTINUOUS
 62
    5
 10
309.80000000000018
 20
202.49999999999994
 40
1.5
 50
270
 51
90
  0
LINE
  8
_0-0__
  6
CONTINUOUS
 62
    5
 10
309.80000000000018
 20
245.99999999999994
 11
284.19999999999982
 21
245.99999999999994
  0
LINE
  8
_0-0__
  6
CONTINUOUS
 62
    5
 10
309.80000000000018
 20
242.99999999999994
 11
284.19999999999982
 21
242.99999999999994
  0
LINE
  8
_0-0__
  6
CONTINUOUS
 62
    5
 10
309.80000000000018
 20
236.99999999999994
 11
284.19999999999982
 21
236.99999999999994
  0
LINE
  8
_0-0__
  6
CONTINUOUS
 62
    5
 10
309.80000000000018
 20
239.99999999999994
 11
284.19999999999982
 21
239.99999999999994
  0
LINE
  8
_0-0__
  6
CONTINUOUS
 62
    5
 10
309.80000000000018
 20
230.99999999999994
 11
284.19999999999982
 21
230.99999999999994
  0
LINE
  8
_0-0__
  6
CONTINUOUS
 62
    5
 10
309.80000000000018
 20
233.99999999999994
 11
284.19999999999982
 21
233.99999999999994
  0
LINE
  8
_0-0__
  6
CONTINUOUS
 62
    5
 10
309.80000000000018
 20
206.99999999999994
 11
284.19999999999982
 21
206.99999999999994
  0
LINE
  8
_0-0__
  6
CONTINUOUS
 62
    5
 10
309.80000000000018
 20
209.99999999999994
 11
284.19999999999982
 21
209.99999999999994
  0
LINE
  8
_0-0__
  6
CONTINUOUS
 62
    5
 10
309.80000000000018
 20
212.99999999999994
 11
284.19999999999982
 21
212.99999999999994
  0
LINE
  8
_0-0__
  6
CONTINUOUS
 62
    5
 10
309.80000000000018
 20
215.99999999999994
 11
284.19999999999982
 21
215.99999999999994
  0
LINE
  8
_0-0__
  6
CONTINUOUS
 62
    5
 10
309.80000000000018
 20
218.99999999999994
 11
284.19999999999982
 21
218.99999999999994
  0
LINE
  8
_0-0__
  6
CONTINUOUS
 62
    5
 10
309.80000000000018
 20
221.99999999999994
 11
284.19999999999982
 21
221.99999999999994
  0
LINE
  8
_0-0__
  6
CONTINUOUS
 62
    5
 10
309.80000000000018
 20
224.99999999999994
 11
284.19999999999982
 21
224.99999999999994
  0
LINE
  8
_0-0__
  6
CONTINUOUS
 62
    5
 10
309.80000000000018
 20
227.99999999999994
 11
284.19999999999982
 21
227.99999999999994
  0
LINE
  8
_0-0__
  6
CONTINUOUS
 62
    5
 10
309.80000000000018
 20
203.99999999999994
 11
284.19999999999982
 21
203.99999999999994
  0
LINE
  8
_0-0__
  6
CONTINUOUS
 62
    5
 10
309.80000000000018
 20
200.99999999999994
 11
282.69999999999982
 21
200.99999999999994
  0
LINE
  8
_0-0__
  6
CONTINUOUS
 62
   18
 10
282.19999999999982
 20
249.7999999999999
 11
282.19999999999982
 21
200.19999999999999
  0
ARC
  8
_0-0__
  6
CONTINUOUS
 62
    5
 10
284.19999999999982
 20
247.49999999999994
 40
1.5
 50
90
 51
270
  0
ARC
  8
_0-0__
  6
CONTINUOUS
 62
    5
 10
284.19999999999982
 20
241.49999999999994
 40
1.5
 50
90
 51
270
  0
ARC
  8
_0-0__
  6
CONTINUOUS
 62
    5
 10
284.19999999999982
 20
235.49999999999994
 40
1.5
 50
90
 51
270
  0
ARC
  8
_0-0__
  6
CONTINUOUS
 62
    5
 10
284.19999999999982
 20
229.49999999999994
 40
1.5
 50
90
 51
270
  0
ARC
  8
_0-0__
  6
CONTINUOUS
 62
    5
 10
284.19999999999982
 20
223.49999999999994
 40
1.5
 50
90
 51
270
  0
ARC
  8
_0-0__
  6
CONTINUOUS
 62
    5
 10
284.19999999999982
 20
217.49999999999994
 40
1.5
 50
90
 51
270
  0
ARC
  8
_0-0__
  6
CONTINUOUS
 62
    5
 10
284.19999999999982
 20
211.49999999999994
 40
1.5
 50
90
 51
270
  0
ARC
  8
_0-0__
  6
CONTINUOUS
 62
    5
 10
284.19999999999982
 20
205.49999999999994
 40
1.5
 50
90
 51
270
  0
LINE
  8
_0-0__
  6
CONTINUOUS
 62
   18
 10
312
 20
299.99999999999994
 11
282
 21
299.99999999999994
  0
ARC
  8
_0-0__
  6
CONTINUOUS
 62
    7
 10
297
 20
355.99999999999994
 40
39
 50
247.38013505195957
 51
292.6198649480404
  0
LINE
  8
_0-0__
  6
CONTINUOUS
 62
    7
 10
282
 20
299.99999999999994
 11
282
 21
319.99999999999994
  0
LINE
  8
_0-0__
  6
CONTINUOUS
 62
    7
 10
312
 20
299.99999999999994
 11
312
 21
319.99999999999994
  0
ARC
  8
_0-0__
  6
CONTINUOUS
 62
    1
 10
297
 20
355.99999999999994
 40
39
 50
247.38013505195957
 51
292.6198649480404
  0
SOLID
  8
_0-0__
  6
CONTINUOUS
 62
    9
 10
282
 20
319.99999999999994
 11
282
 21
299.99999999999994
 12
312
 22
299.99999999999994
 13
312
 23
299.99999999999994
  0
SOLID
  8
_0-0__
  6
CONTINUOUS
 62
    9
 10
312
 20
299.99999999999994
 11
312
 21
319.99999999999994
 12
297
 22
313.74999999999994
 13
297
 23
313.74999999999994
  0
SOLID
  8
_0-0__
  6
CONTINUOUS
 62
    9
 10
312
 20
299.99999999999994
 11
297
 21
313.74999999999994
 12
282
 22
319.99999999999994
 13
282
 23
319.99999999999994
  0
LINE
  8
_0-0__
  6
CONTINUOUS
 62
    7
 10
282
 20
319.99999999999994
 11
131.99999999999997
 21
319.99999999999994
  0
LINE
  8
_0-0__
  6
CONTINUOUS
 62
    7
 10
462
 20
319.99999999999994
 11
312
 21
319.99999999999994
  0
POINT
  8
_0-0__
 62
   18
 10
302
 20
309.99999999999994
  0
TEXT
  8
_0-0__
 62
    7
 10
323.00000000000045
 20
307.49999999999994
 40
5
 41
1
 50
0
  1
シーリング
  0
LINE
  8
_0-0__
  6
CONTINUOUS
 62
    7
 10
322.00000000000045
 20
309.99999999999994
 11
302
 21
309.99999999999994
  0
TEXT
  8
_0-0__
 62
    7
 10
131.99999999999997
 20
319.99999999999994
 40
5
 41
1
 50
0
  1
外部側
  0
LINE
  8
_0-0__
  6
CONTINUOUS
 62
    5
 10
131.99999999999997
 20
209.99999999999994
 11
241.99999999999997
 21
319.99999999999994
  0
LINE
  8
_0-0__
  6
CONTINUOUS
 62
    5
 10
131.99999999999997
 20
206.99999999999994
 11
244.99999999999997
 21
319.99999999999994
  0
LINE
  8
_0-0__
  6
CONTINUOUS
 62
    5
 10
131.99999999999997
 20
203.99999999999994
 11
247.99999999999997
 21
319.99999999999994
  0
POINT
  8
_0-0__
 62
   18
 10
302
 20
274.99999999999994
  0
LINE
  8
_0-0__
  6
CONTINUOUS
 62
    7
 10
322.00000000000045
 20
274.99999999999994
 11
302
 21
274.99999999999994
  0
TEXT
  8
_0-0__
 62
    7
 10
323.00000000000045
 20
272.49999999999994
 40
5
 41
1
 50
0
  1
ポリエチレン
  0
TEXT
  8
_0-0__
 62
    7
 10
323.00000000000045
 20
266.49999999999994
 40
5
 41
1
 50
0
  1
独立気泡発泡体
  0
POINT
  8
_0-0__
 62
   18
 10
302
 20
174.99999999999994
  0
LINE
  8
_0-0__
  6
CONTINUOUS
 62
    7
 10
322.00000000000045
 20
174.99999999999994
 11
302
 21
174.99999999999994
  0
TEXT
  8
_0-0__
 62
    7
 10
323.00000000000045
 20
172.49999999999994
 40
5
 41
1
 50
0
  1
ポリエチレン
  0
TEXT
  8
_0-0__
 62
    7
 10
323.00000000000045
 20
166.49999999999994
 40
5
 41
1
 50
0
  1
独立気泡発泡体
  0
LINE
  8
_0-0__
  6
CONTINUOUS
 62
    5
 10
323
 20
149.99999999999994
 11
338.53731343283579
 21
165.53731343283579
  0
LINE
  8
_0-0__
  6
CONTINUOUS
 62
    5
 10
351.48400852878467
 20
178.48400852878461
 11
462
 21
288.99999999999994
  0
LINE
  8
_0-0__
  6
CONTINUOUS
 62
    5
 10
320
 20
149.99999999999994
 11
335.53731343283579
 21
165.53731343283579
  0
LINE
  8
_0-0__
  6
CONTINUOUS
 62
    5
 10
348.48400852878467
 20
178.48400852878461
 11
462
 21
291.99999999999994
  0
LINE
  8
_0-0__
  6
CONTINUOUS
 62
    5
 10
317
 20
149.99999999999994
 11
332.53731343283584
 21
165.53731343283579
  0
LINE
  8
_0-0__
  6
CONTINUOUS
 62
    5
 10
345.48400852878467
 20
178.48400852878459
 11
462
 21
294.99999999999994
  0
POINT
  8
_0-0__
 62
    7
 10
312
 20
137.99999999999994
  0
LINE
  8
_0-0__
  6
CONTINUOUS
 62
    7
 10
312
 20
137.99999999999994
 11
312
 21
144.99999999999994
  0
LINE
  8
_1-0__
  6
CONTINUOUS
 62
    7
 10
312
 20
137.99999999999994
 11
282
 21
137.99999999999994
  0
TEXT
  8
_0-0__
 62
    7
 10
294.5
 20
138.19999999999999
 40
5
 41
1
 50
0
  1
30
  0
POINT
  8
_0-0__
 62
    7
 10
282
 20
137.99999999999994
  0
LINE
  8
_0-0__
  6
CONTINUOUS
 62
    7
 10
282
 20
137.99999999999994
 11
282
 21
144.99999999999994
  0
LINE
  8
_0-0__
  6
DASHED1
 62
    7
 10
462
 20
299.99999999999994
 11
131.99999999999997
 21
299.99999999999994
  0
TEXT
  8
_0-0__
 62
    2
 10
387.45000000000005
 20
28.089999999999975
 40
4.4000000000000004
 41
1
 50
0
  1
ＮＮソフトロックウール 納まり図
  0
TEXT
  8
_0-0__
 62
    2
 10
400.10000000000002
 20
33.089999999999975
 40
4.4000000000000004
 41
1
 50
0
  1
耐震改修専用スリット
  0
LINE
  8
_0-0__
  6
CONTINUOUS
 62
    7
 10
26.999999999999886
 20
393.89999999999998
 11
26.999999999999886
 21
373.89999999999998
  0
TEXT
  8
_0-0__
 62
    7
 10
44.999999999999886
 20
376.89999999999998
 40
14
 41
1
 50
0
  1
ＮＮ－３０Ｒ
  0
LINE
  8
_0-0__
  6
CONTINUOUS
 62
    7
 10
146.99999999999989
 20
393.89999999999998
 11
26.999999999999886
 21
393.89999999999998
  0
LINE
  8
_0-0__
  6
CONTINUOUS
 62
    7
 10
146.99999999999989
 20
373.89999999999998
 11
146.99999999999989
 21
393.89999999999998
  0
LINE
  8
_0-0__
  6
CONTINUOUS
 62
    7
 10
26.999999999999886
 20
373.89999999999998
 11
146.99999999999989
 21
373.89999999999998
  0
TEXT
  8
_0-0__
 62
    7
 10
323.00000000000045
 20
223.99999999999994
 40
5
 41
1
 50
0
  1
ロックウール
  0
POINT
  8
_0-0__
 62
   18
 10
270
 20
299.99999999999994
  0
LINE
  8
_0-0__
  6
CONTINUOUS
 62
    7
 10
270
 20
299.99999999999994
 11
270
 21
149.99999999999994
  0
POINT
  8
_0-0__
 62
   18
 10
270
 20
149.99999999999994
  0
TEXT
  8
_0-0__
 62
    7
 10
269.79999999999995
 20
214.99999999999994
 40
5
 41
1
 50
90
  1
製品寸法
  0
LINE
  8
_0-0__
  6
CONTINUOUS
 62
    7
 10
270
 20
299.99999999999994
 11
277
 21
299.99999999999994
  0
TEXT
  8
_0-0__
 62
    7
 10
256.80849887332408
 20
23.160000000000025
 40
3.6000000000000001
 41
1
 50
0
  1
https://www.axis-slit.com/pailon/
  0
ENDSEC
  0
EOF
