  0
SECTION
  2
HEADER
  9
$ACADVER
  1
AC1009
  9
$INSBASE
 10
0
 20
0
 30
0
  9
$EXTMIN
 10
0
 20
0
  9
$EXTMAX
 10
594
 20
420
  9
$LIMMIN
 10
0
 20
0
  9
$LIMMAX
 10
594
 20
420
  9
$LTSCALE
 40
2
  0
ENDSEC
  0
SECTION
  2
TABLES
  0
TABLE
  2
LTYPE
 70
     9
  0
LTYPE
  2
CONTINUOUS
 70
    64
  3
実線
 72
    65
 73
     0
 40
0.0
  0
LTYPE
  2
DASHED1
 70
    64
  3
--  --  --  --  --  --  --  --  
 72
    65
 73
     2
 40
2.5
 49
1.25
 49
-1.25
  0
LTYPE
  2
DASHED2
 70
    64
  3
----    ----    ----    ----    
 72
    65
 73
     2
 40
5.0
 49
2.5
 49
-2.5
  0
LTYPE
  2
DASHED3
 70
    64
  3
------  ------  ------  ------  
 72
    65
 73
     2
 40
5.0
 49
3.75
 49
-1.25
  0
LTYPE
  2
CENTER1
 70
    64
  3
----- - ----- - ----- - ----- - 
 72
    65
 73
     4
 40
10.0
 49
6.25
 49
-1.25
 49
1.25
 49
-1.25
  0
LTYPE
  2
CENTER2
 70
    64
  3
----------  --  ----------  --  
 72
    65
 73
     4
 40
20.0
 49
12.5
 49
-2.5
 49
2.5
 49
-2.5
  0
LTYPE
  2
PHANTOM1
 70
    64
  3
--- - - --- - - --- - - --- - - 
 72
    65
 73
     6
 40
10.0
 49
3.25
 49
-1.25
 49
1.25
 49
-1.25
 49
1.25
 49
-1.25
  0
LTYPE
  2
PHANTOM2
 70
    64
  3
--------  -  -  --------  -  -  
 72
    65
 73
     6
 40
20.0
 49
10.0
 49
-2.5
 49
1.25
 49
-2.5
 49
1.25
 49
-2.5
  0
LTYPE
  2
DOT
 70
    64
  3
-   -   -   -   -   -   -   -   
 72
    65
 73
     2
 40
2.5
 49
0.625
 49
-1.875
  0
LTYPE
  2
DUMMY
 70
    64
  3
ダミー
 72
    65
 73
     0
 40
0.0
  0
LTYPE
  2
RAND1
 70
    64
  3
ランダム線1
 72
    65
 73
     4
 40
10.0
 49
1.0
 49
-2.0
 49
3.0
 49
-4.0
  0
LTYPE
  2
RAND2
 70
    64
  3
ランダム線2
 72
    65
 73
     4
 40
14.0
 49
2.0
 49
-3.0
 49
4.0
 49
-5.0
  0
LTYPE
  2
RAND3
 70
    64
  3
ランダム線3
 72
    65
 73
     4
 40
18.0
 49
3.0
 49
-4.0
 49
5.0
 49
-6.0
  0
LTYPE
  2
RAND4
 70
    64
  3
ランダム線4
 72
    65
 73
     4
 40
22.0
 49
4.0
 49
-5.0
 49
6.0
 49
-7.0
  0
LTYPE
  2
RAND5
 70
    64
  3
ランダム線5
 72
    65
 73
     4
 40
26.0
 49
5.0
 49
-6.0
 49
7.0
 49
-8.0
  0
LTYPE
  2
LONG1
 70
    64
  3
----------  --  ----------  --  
 72
    65
 73
     4
 40
40.0
 49
32.5
 49
-2.5
 49
2.5
 49
-2.5
  0
LTYPE
  2
LONG2
 70
    64
  3
--------  -  -  --------  -  -  
 72
    65
 73
     6
 40
40.0
 49
30.0
 49
-2.5
 49
1.25
 49
-2.5
 49
1.25
 49
-2.5
  0
LTYPE
  2
LONG3
 70
    64
  3
+++++++++++++++..+++++++++++++++
 72
    65
 73
     2
 40
40.0
 49
37.5
 49
-2.5
  0
LTYPE
  2
LONG4
 70
    64
  3
+++++++++++++++..+++++++++++++++
 72
    65
 73
     2
 40
80.0
 49
75.0
 49
-5.0
  0
LTYPE
  2
LONG5
 70
    64
  3
----------  --  ----------  --  
 72
    65
 73
     4
 40
60.0
 49
37.5
 49
-7.5
 49
7.5
 49
-7.5
  0
LTYPE
  2
dashed
 70
   64
  3
-------   -------------   ------
 72
   65
 73
    2
 40
7.5
 49
6
 49
-1.5
  0
LTYPE
  2
dashed_spaced
 70
   64
  3
----        --------        ----
 72
   65
 73
    2
 40
12
 49
6
 49
-6
  0
LTYPE
  2
long_dashed_dotted
 70
   64
  3
------------- --- --------------
 72
   65
 73
    4
 40
15.25
 49
12
 49
-1.5
 49
0.25
 49
-1.5
  0
LTYPE
  2
long_dashed_double-dotted
 70
   64
  3
----------- --- --- ------------
 72
   65
 73
    6
 40
17
 49
12
 49
-1.5
 49
0.25
 49
-1.5
 49
0.25
 49
-1.5
  0
LTYPE
  2
long_dashed_triplicate-dotted
 70
   64
  3
--------- --- --- --- ----------
 72
   65
 73
    8
 40
18.75
 49
12
 49
-1.5
 49
0.25
 49
-1.5
 49
0.25
 49
-1.5
 49
0.25
 49
-1.5
  0
LTYPE
  2
dotted
 70
   64
  3
   -       -       -       -    
 72
   65
 73
    2
 40
1.75
 49
0.25
 49
-1.5
  0
LTYPE
  2
chain
 70
   64
  3
-------------- -- --------------
 72
   65
 73
    4
 40
18.5
 49
12
 49
-1.5
 49
3.5
 49
-1.5
  0
LTYPE
  2
chain_double_dash
 70
   64
  3
------------ -- -- -------------
 72
   65
 73
    6
 40
23.5
 49
12
 49
-1.5
 49
3.5
 49
-1.5
 49
3.5
 49
-1.5
  0
LTYPE
  2
dashed_dotted
 70
   64
  3
-----------     -     ----------
 72
   65
 73
    4
 40
9.25
 49
6
 49
-1.5
 49
0.25
 49
-1.5
  0
LTYPE
  2
double-dashed_dotted
 70
   64
  3
------   -----------   -   -----
 72
   65
 73
    6
 40
16.75
 49
6
 49
-1.5
 49
6
 49
-1.5
 49
0.25
 49
-1.5
  0
LTYPE
  2
dashed_double-dotted
 70
   64
  3
---------    -    -    ---------
 72
   65
 73
    6
 40
11
 49
6
 49
-1.5
 49
0.25
 49
-1.5
 49
0.25
 49
-1.5
  0
LTYPE
  2
double-dashed_double-dotted
 70
   64
  3
-----   ---------   -   -   ----
 72
   65
 73
    8
 40
18.5
 49
6
 49
-1.5
 49
6
 49
-1.5
 49
0.25
 49
-1.5
 49
0.25
 49
-1.5
  0
LTYPE
  2
dashed_triplicate-dotted
 70
   64
  3
-------    -    -    -    ------
 72
   65
 73
    8
 40
12.75
 49
6
 49
-1.5
 49
0.25
 49
-1.5
 49
0.25
 49
-1.5
 49
0.25
 49
-1.5
  0
LTYPE
  2
double-dashed_triplicate-dotted
 70
   64
  3
-----  ---------  -  -  -  -----
 72
   65
 73
   10
 40
20.25
 49
6
 49
-1.5
 49
6
 49
-1.5
 49
0.25
 49
-1.5
 49
0.25
 49
-1.5
 49
0.25
 49
-1.5
  0
LTYPE
  2
undefined
 70
   64
  3
--------------------------------
 72
   65
 73
    0
 40
0
  0
LTYPE
  2
_
 70
   64
  3
                                
 72
   65
 73
    0
 40
0
  0
LTYPE
  2
__18
 70
   64
  3
                                
 72
   65
 73
    0
 40
0
  0
LTYPE
  2
__19
 70
   64
  3
                                
 72
   65
 73
    0
 40
0
  0
LTYPE
  2
__20
 70
   64
  3
                                
 72
   65
 73
    0
 40
0
  0
LTYPE
  2
__21
 70
   64
  3
                                
 72
   65
 73
    0
 40
0
  0
LTYPE
  2
__22
 70
   64
  3
                                
 72
   65
 73
    0
 40
0
  0
LTYPE
  2
__23
 70
   64
  3
                                
 72
   65
 73
    0
 40
0
  0
LTYPE
  2
__24
 70
   64
  3
                                
 72
   65
 73
    0
 40
0
  0
LTYPE
  2
__25
 70
   64
  3
                                
 72
   65
 73
    0
 40
0
  0
LTYPE
  2
__26
 70
   64
  3
                                
 72
   65
 73
    0
 40
0
  0
LTYPE
  2
__27
 70
   64
  3
                                
 72
   65
 73
    0
 40
0
  0
LTYPE
  2
__28
 70
   64
  3
                                
 72
   65
 73
    0
 40
0
  0
LTYPE
  2
__29
 70
   64
  3
                                
 72
   65
 73
    0
 40
0
  0
LTYPE
  2
__30
 70
   64
  3
                                
 72
   65
 73
    0
 40
0
  0
LTYPE
  2
__31
 70
   64
  3
                                
 72
   65
 73
    0
 40
0
  0
LTYPE
  2
__32
 70
   64
  3
                                
 72
   65
 73
    0
 40
0
  0
ENDTAB
  0
TABLE
  2
STYLE
  5
3
100
AcDbSymbolTable
 70
     1
  0
STYLE
  5
10
100
AcDbSymbolTableRecord
100
AcDbTextStyleTableRecord
  2
STANDARD
 70
     0
 40
0.0
 41
1.0
 50
0.0
 71
     0
 42
0.2
  3
txt
  4
bigfont.shx
  0
STYLE
  5
26
100
AcDbSymbolTableRecord
100
AcDbTextStyleTableRecord
  2
TATEGAKI
 70
    68
 40
0.0
 41
1.0
 50
0.0
 71
     0
 42
1.0
  3
txt
  4
bigfont.shx
  0
ENDTAB
  0
TABLE
  2
LAYER
 70
    2
  0
LAYER
  2
_0-0__
 70
   64
 62
    7
  6
CONTINUOUS
  0
LAYER
  2
ADD_LINE
 70
   64
 62
    7
  6
CONTINUOUS
  0
ENDTAB
  0
ENDSEC
  0
SECTION
  2
BLOCKS
  0
ENDSEC
  0
SECTION
  2
ENTITIES
  0
LINE
  8
_0-0__
  6
DASHED1
 62
    7
 10
178
 20
21.699999999999988
 11
38
 21
21.699999999999988
  0
LINE
  8
_0-0__
  6
DASHED1
 62
    7
 10
178
 20
32.899999999999977
 11
38
 21
32.899999999999977
  0
LINE
  8
_0-0__
  6
CONTINUOUS
 62
    7
 10
38
 20
16.099999999999994
 11
38
 21
38.499999999999971
  0
LINE
  8
_0-0__
  6
DASHED1
 62
    7
 10
65.999999999999971
 20
16.099999999999994
 11
65.999999999999971
 21
38.499999999999971
  0
LINE
  8
_0-0__
  6
CONTINUOUS
 62
    7
 10
577
 20
403.89999999999997
 11
577
 21
16.099999999999994
  0
LINE
  8
_0-0__
  6
CONTINUOUS
 62
    7
 10
577
 20
16.099999999999994
 11
17
 21
16.099999999999994
  0
LINE
  8
_0-0__
  6
CONTINUOUS
 62
    7
 10
17
 20
403.89999999999997
 11
577
 21
403.89999999999997
  0
LINE
  8
_0-0__
  6
CONTINUOUS
 62
    7
 10
17
 20
16.099999999999994
 11
17
 21
403.89999999999997
  0
LINE
  8
_0-0__
  6
CONTINUOUS
 62
    7
 10
507
 20
27.299999999999982
 11
507
 21
16.099999999999994
  0
LINE
  8
_0-0__
  6
CONTINUOUS
 62
    7
 10
535
 20
27.299999999999982
 11
367
 21
27.299999999999982
  0
LINE
  8
_0-0__
  6
CONTINUOUS
 62
    7
 10
535
 20
38.499999999999971
 11
535
 21
16.099999999999994
  0
LINE
  8
_0-0__
  6
CONTINUOUS
 62
    7
 10
577
 20
38.499999999999971
 11
17
 21
38.499999999999971
  0
LINE
  8
_0-0__
  6
CONTINUOUS
 62
    7
 10
577
 20
39.199999999999988
 11
17
 21
39.199999999999988
  0
LINE
  8
_0-0__
  6
CONTINUOUS
 62
    7
 10
479
 20
38.499999999999971
 11
479
 21
16.099999999999994
  0
LINE
  8
_0-0__
  6
CONTINUOUS
 62
    7
 10
367
 20
38.499999999999971
 11
367
 21
16.099999999999994
  0
LINE
  8
_0-0__
  6
CONTINUOUS
 62
    7
 10
178
 20
16.099999999999994
 11
178
 21
38.499999999999971
  0
LINE
  8
_0-0__
  6
DASHED1
 62
    7
 10
178
 20
27.299999999999982
 11
38
 21
27.299999999999982
  0
LINE
  8
_0-0__
  6
CONTINUOUS
 62
    7
 10
577.27999999999997
 20
404.18
 11
16.71999999999997
 21
404.18
  0
LINE
  8
_0-0__
  6
CONTINUOUS
 62
    7
 10
16.71999999999997
 20
404.18
 11
16.71999999999997
 21
15.819999999999993
  0
LINE
  8
_0-0__
  6
CONTINUOUS
 62
    7
 10
577.27999999999997
 20
15.819999999999993
 11
577.27999999999997
 21
404.18
  0
LINE
  8
_0-0__
  6
CONTINUOUS
 62
    7
 10
16.71999999999997
 20
15.819999999999993
 11
577.27999999999997
 21
15.819999999999993
  0
LINE
  8
ADD_LINE
  6
DOT
 62
    9
 10
16.71999999999997
 20
404.18
 11
577.27999999999997
 21
15.819999999999993
  0
LINE
  8
ADD_LINE
  6
DOT
 62
    9
 10
16.71999999999997
 20
15.819999999999993
 11
577.27999999999997
 21
404.18
  0
TEXT
  8
_0-0__
 62
    7
 10
24.200000000000102
 20
25.699999999999988
 40
3.2000000000000001
 41
1
 50
0
  1
改訂
  0
TEXT
  8
_0-0__
 62
    7
 10
369
 20
23.099999999999994
 40
3.2000000000000001
 41
1
 50
0
  1
図面名
  0
TEXT
  8
_0-0__
 62
    7
 10
369
 20
34.299999999999982
 40
3.2000000000000001
 41
1
 50
0
  1
件名
  0
TEXT
  8
_0-0__
 62
    7
 10
481
 20
34.299999999999982
 40
3.2000000000000001
 41
1
 50
0
  1
DATE
  0
TEXT
  8
_0-0__
 62
    7
 10
481
 20
23.099999999999994
 40
3.2000000000000001
 41
1
 50
0
  1
SCALE
  0
TEXT
  8
_0-0__
 62
    7
 10
509.00000000000005
 20
23.099999999999994
 40
3.2000000000000001
 41
1
 50
0
  1
担当
  0
TEXT
  8
_0-0__
 62
    7
 10
537
 20
34.299999999999982
 40
3.2000000000000001
 41
1
 50
0
  1
図面№
  0
TEXT
  8
_0-0__
 62
    7
 10
256.80849887332408
 20
32.360000000000013
 40
3.6
 41
1
 50
0
  1
〒166-0004　東京都杉並区阿佐谷南1-33-1　第二東都ビル2F
  0
TEXT
  8
_0-0__
 62
    2
 10
485
 20
17.889999999999986
 40
4.4000000000000003
 41
1
 50
0
  1
A4：1/2
  0
TEXT
  8
_0-0__
 62
    7
 10
256.80849887332408
 20
27.75999999999999
 40
3.6
 41
1
 50
0
  1
TEL：03(5305)4322 / FAX：03(3316)4177
  0
TEXT
  8
_0-0__
 62
    7
 10
256.80849887332408
 20
18.560000000000059
 40
3.6
 41
1
 50
0
  1
e-mail：info@pailon.co.jp
  0
TEXT
  8
_0-0__
 62
    7
 10
196.10869565217393
 20
24.652173913043498
 40
6
 41
1
 50
0
  1
パイロン株式会社
  0
TEXT
  8
_0-0__
 62
    2
 10
495.55000000000012
 20
29.089999999999974
 40
4.4000000000000003
 41
1
 50
0
  1
2021/11/01
  0
TEXT
  8
_0-0__
 62
    2
 10
385.15000000000009
 20
29.089999999999974
 40
4.4000000000000003
 41
1
 50
0
  1
水平スリットＦＰスリット 納まり図
  0
LINE
  8
_0-0__
  6
CONTINUOUS
 62
    7
 10
144.99999999999977
 20
105.80000000000001
 11
186.99999999999977
 21
114.20000000000004
  0
LINE
  8
_0-0__
  6
CONTINUOUS
 62
    7
 10
229.49999999999977
 20
80.19999999999996
 11
219.5
 21
80.19999999999996
  0
LINE
  8
_0-0__
  6
CONTINUOUS
 62
   18
 10
206.99999999999977
 20
159.2000000000001
 11
206.99999999999977
 21
134.19999999999998
  0
LINE
  8
_0-0__
  6
CONTINUOUS
 62
    7
 10
206.99999999999977
 20
134.19999999999998
 11
443.99999999999988
 21
134.19999999999998
  0
LINE
  8
_0-0__
  6
CONTINUOUS
 62
   18
 10
206.99999999999977
 20
159.2000000000001
 11
406.99999999999988
 21
159.2000000000001
  0
LINE
  8
_0-0__
  6
CONTINUOUS
 62
   18
 10
212
 20
159.19981725822412
 11
227
 21
159.19981725822412
  0
LINE
  8
_0-0__
  6
CONTINUOUS
 62
   18
 10
227
 20
159.19981725822412
 11
227
 21
162.19981725822412
  0
LINE
  8
_0-0__
  6
CONTINUOUS
 62
   18
 10
227
 20
162.19981725822412
 11
212
 21
162.19981725822412
  0
LINE
  8
_0-0__
  6
CONTINUOUS
 62
   18
 10
212
 20
162.19981725822412
 11
212
 21
159.19981725822412
  0
SOLID
  8
_0-0__
  6
CONTINUOUS
 62
    8
 10
212
 20
162.19981725822412
 11
212
 21
159.19981725822412
 12
227
 22
162.19981725822412
 13
227
 23
159.19981725822412
  0
POINT
  8
_0-0__
 62
   18
 10
219.5
 20
160.69981725822412
  0
ARC
  8
_0-0__
  6
CONTINUOUS
 62
   18
 10
229.49999999999977
 20
126.32499999999998
 40
10.875
 50
46.397181027296369
 51
133.60281897270363
  0
ARC
  8
_0-0__
  6
CONTINUOUS
 62
    1
 10
229.49999999999977
 20
126.32499999999998
 40
10.875
 50
46.397181027296369
 51
133.60281897270363
  0
POINT
  8
_0-0__
 62
   18
 10
229.49999999999977
 20
135.69999999999998
  0
LINE
  8
_0-0__
  6
CONTINUOUS
 62
    7
 10
219.5
 20
160.69981725822412
 11
219.5
 21
180.69981725822412
  0
LINE
  8
_0-0__
  6
CONTINUOUS
 62
    7
 10
229.49999999999977
 20
135.69999999999998
 11
229.49999999999977
 21
80.19999999999996
  0
LINE
  8
_0-0__
  6
CONTINUOUS
 62
    7
 10
206.99999999999965
 20
154.19999999999996
 11
206.99999999999965
 21
134.19999999999998
  0
SOLID
  8
_0-0__
  6
CONTINUOUS
 62
    9
 10
201.99999999999965
 20
155.44999999999996
 11
193.36672325976201
 21
146.69999999999996
 12
186.99999999999977
 22
159.1999999999999
 13
186.99999999999977
 23
159.1999999999999
  0
SOLID
  8
_0-0__
  6
CONTINUOUS
 62
    9
 10
201.99999999999965
 20
155.44999999999996
 11
186.99999999999977
 21
134.19999999999998
 12
193.36672325976201
 22
146.69999999999996
 13
193.36672325976201
 23
146.69999999999996
  0
SOLID
  8
_0-0__
  6
CONTINUOUS
 62
    9
 10
201.99999999999965
 20
155.44999999999996
 11
201.99999999999965
 21
134.19999999999998
 12
186.99999999999977
 22
134.19999999999998
 13
186.99999999999977
 23
134.19999999999998
  0
ARC
  8
_0-0__
  6
CONTINUOUS
 62
    1
 10
162.45833333333314
 20
146.69999999999996
 40
27.541666666666554
 50
333.00853343840833
 51
26.991466561591661
  0
LINE
  8
_0-0__
  6
CONTINUOUS
 62
    7
 10
205.01601377851159
 20
134.19999999999978
 11
206.99999999999977
 21
136.18398622148797
  0
LINE
  8
_0-0__
  6
CONTINUOUS
 62
    7
 10
202.18758665376492
 20
134.19999999999984
 11
206.99999999999954
 21
139.01241334623443
  0
LINE
  8
_0-0__
  6
CONTINUOUS
 62
    7
 10
201.99999999999943
 20
136.84084047098107
 11
206.99999999999931
 21
141.84084047098087
  0
LINE
  8
_0-0__
  6
CONTINUOUS
 62
    7
 10
201.99999999999954
 20
139.66926759572774
 11
207.00000000000011
 21
144.66926759572834
  0
LINE
  8
_0-0__
  6
CONTINUOUS
 62
    7
 10
201.99999999999931
 20
142.49769472047427
 11
206.99999999999988
 21
147.49769472047486
  0
LINE
  8
_0-0__
  6
CONTINUOUS
 62
    7
 10
202.00000000000079
 20
145.32612184522238
 11
206.99999999999988
 21
150.3261218452215
  0
LINE
  8
_0-0__
  6
CONTINUOUS
 62
    7
 10
202.00000000000022
 20
148.15454896996482
 11
207.00000000000022
 21
153.15454896996484
  0
LINE
  8
_0-0__
  6
CONTINUOUS
 62
    7
 10
201.99999999999988
 20
150.9829760947112
 11
205.57361912423061
 21
154.55659521894193
  0
LINE
  8
_0-0__
  6
CONTINUOUS
 62
    7
 10
201.99999999999965
 20
153.81140321945758
 11
203.31087742443355
 21
155.12228064389151
  0
LINE
  8
_0-0__
  6
CONTINUOUS
 62
    7
 10
202.00000000000011
 20
136.52410757157949
 11
204.32410757157924
 21
134.20000000000038
  0
LINE
  8
_0-0__
  6
CONTINUOUS
 62
    7
 10
202.00000000000022
 20
139.35253469632601
 11
207.00000000000011
 21
134.35253469632615
  0
LINE
  8
_0-0__
  6
CONTINUOUS
 62
    7
 10
201.99999999999977
 20
142.18096182107319
 11
206.99999999999943
 21
137.18096182107348
  0
LINE
  8
_0-0__
  6
CONTINUOUS
 62
    7
 10
202.00000000000022
 20
145.00938894581568
 11
206.99999999999977
 21
140.00938894581616
  0
LINE
  8
_0-0__
  6
CONTINUOUS
 62
    7
 10
201.99999999999954
 20
147.83781607056312
 11
207
 21
142.83781607056263
  0
LINE
  8
_0-0__
  6
CONTINUOUS
 62
    7
 10
201.99999999999977
 20
150.6662431953095
 11
207.00000000000022
 21
145.66624319530907
  0
LINE
  8
_0-0__
  6
CONTINUOUS
 62
    7
 10
202.00000000000011
 20
153.49467032005588
 11
206.99999999999943
 21
148.49467032005657
  0
LINE
  8
_0-0__
  6
CONTINUOUS
 62
    7
 10
203.16412992640414
 20
155.15896751839844
 11
206.99999999999965
 21
151.32309744480301
  0
ARC
  8
_0-0__
  6
CONTINUOUS
 62
    7
 10
162.45833333333314
 20
146.69999999999996
 40
27.541666666666554
 50
333.00853343840833
 51
26.991466561591661
  0
LINE
  8
_0-0__
  6
CONTINUOUS
 62
    7
 10
201.99999999999965
 20
155.44999999999996
 11
201.99999999999965
 21
134.19999999999998
  0
LINE
  8
_0-0__
  6
CONTINUOUS
 62
    7
 10
186.99999999999977
 20
159.19999999999993
 11
206.99999999999965
 21
154.19999999999996
  0
LINE
  8
_0-0__
  6
CONTINUOUS
 62
    7
 10
206.99999999999965
 20
134.19999999999998
 11
186.99999999999977
 21
134.19999999999998
  0
POINT
  8
_0-0__
 62
   18
 10
204.49999999999977
 20
144.20000000000018
  0
POINT
  8
_0-0__
 62
   18
 10
194.49999999999977
 20
144.20000000000018
  0
LINE
  8
_0-0__
  6
CONTINUOUS
 62
    7
 10
219.50000000000011
 20
180.69981725822412
 11
229.50000000000011
 21
180.69981725822412
  0
TEXT
  8
_0-0__
 62
    7
 10
230.50000000000011
 20
178.19981725822412
 40
5
 41
1
 50
0
  1
再生ブチル(3×15)
  0
LINE
  8
_0-0__
  6
CONTINUOUS
 62
    7
 10
186.99999999999977
 20
134.19999999999998
 11
186.99999999999977
 21
114.20000000000004
  0
TEXT
  8
_0-0__
 62
    7
 10
139.27350269189582
 20
117.05898384862263
 40
5
 41
1
 50
0
  1
バックアップ材
  0
TEXT
  8
_0-0__
 62
    7
 10
149.27350269189582
 20
125.71923788646702
 40
5
 41
1
 50
0
  1
シーリング
  0
LINE
  8
_0-0__
  6
DASHED1
 62
    7
 10
186.99999999999977
 20
134.20000000000001
 11
186.99999999999977
 21
90.199999999999988
  0
LINE
  8
_0-0__
  6
CONTINUOUS
 62
    5
 10
374.49999999999977
 20
69.199999999999988
 11
439.49999999999988
 21
134.19999999999998
  0
LINE
  8
_0-0__
  6
CONTINUOUS
 62
    5
 10
368.49999999999977
 20
69.199999999999988
 11
433.49999999999988
 21
134.19999999999998
  0
LINE
  8
_0-0__
  6
CONTINUOUS
 62
    5
 10
371.49999999999977
 20
69.199999999999988
 11
436.49999999999988
 21
134.19999999999998
  0
TEXT
  8
_0-0__
 62
    7
 10
410.49999999999988
 20
369.19999999999998
 40
5
 41
1
 50
0
  1
内部側
  7
TATEGAKI
  0
LINE
  8
_0-0__
  6
CONTINUOUS
 62
    7
 10
406.99999999999988
 20
359.19999999999998
 11
186.99999999999977
 21
359.19999999999998
  0
POINT
  8
_0-0__
 62
    7
 10
186.99999999999977
 20
359.19999999999998
  0
POINT
  8
_0-0__
 62
    7
 10
406.99999999999988
 20
359.19999999999998
  0
TEXT
  8
_0-0__
 62
    7
 10
291.99999999999977
 20
359.39999999999997
 40
5
 41
1
 50
0
  1
壁厚
  0
TEXT
  8
_0-0__
 62
    7
 10
183.49999999999977
 20
369.19999999999998
 40
5
 41
1
 50
0
  1
外部側
  7
TATEGAKI
  0
LINE
  8
_0-0__
  6
CONTINUOUS
 62
    7
 10
406.99999999999988
 20
369.19999999999998
 11
406.99999999999988
 21
134.19999999999998
  0
LINE
  8
_0-0__
  6
CONTINUOUS
 62
    7
 10
186.99999999999977
 20
369.19999999999998
 11
186.99999999999977
 21
159.19999999999993
  0
LINE
  8
_0-0__
  6
DASHED1
 62
    7
 10
206.99999999999977
 20
369.19999999999998
 11
206.99999999999977
 21
90.199999999999988
  0
LINE
  8
_0-0__
  6
CONTINUOUS
 62
    7
 10
463.99999999999988
 20
381.40000000000003
 11
466.99999999999988
 21
381.40000000000003
  0
LINE
  8
_0-0__
  6
CONTINUOUS
 62
    7
 10
463.99999999999988
 20
371.40000000000003
 11
466.99999999999988
 21
371.40000000000003
  0
LINE
  8
_0-0__
  6
CONTINUOUS
 62
    7
 10
476.99999999999977
 20
371.40000000000003
 11
536.99999999999977
 21
371.40000000000003
  0
LINE
  8
_0-0__
  6
CONTINUOUS
 62
    7
 10
546.99999999999977
 20
371.40000000000003
 11
549.99999999999977
 21
371.40000000000003
  0
LINE
  8
_0-0__
  6
CONTINUOUS
 62
    7
 10
476.99999999999977
 20
381.40000000000003
 11
536.99999999999977
 21
381.40000000000003
  0
LINE
  8
_0-0__
  6
CONTINUOUS
 62
    7
 10
546.99999999999977
 20
381.40000000000003
 11
549.99999999999977
 21
381.40000000000003
  0
LINE
  8
_0-0__
  6
CONTINUOUS
 62
    7
 10
503.99999999999977
 20
379.80000000000006
 11
503.99999999999977
 21
373.79999999999995
  0
LINE
  8
_0-0__
  6
CONTINUOUS
 62
    7
 10
503.99999999999977
 20
373.79999999999995
 11
509.99999999999977
 21
373.79999999999995
  0
LINE
  8
_0-0__
  6
CONTINUOUS
 62
    7
 10
509.99999999999977
 20
379.80000000000006
 11
503.99999999999977
 21
379.80000000000006
  0
LINE
  8
_0-0__
  6
CONTINUOUS
 62
    7
 10
509.99999999999977
 20
373.79999999999995
 11
509.99999999999977
 21
379.80000000000006
  0
LINE
  8
_0-0__
  6
CONTINUOUS
 62
    7
 10
566.99999999999977
 20
393.90000000000003
 11
446.99999999999988
 21
393.90000000000003
  0
LINE
  8
_0-0__
  6
CONTINUOUS
 62
    7
 10
536.99999999999977
 20
384.40000000000003
 11
536.99999999999977
 21
323.40000000000003
  0
LINE
  8
_0-0__
  6
CONTINUOUS
 62
    7
 10
476.99999999999977
 20
384.40000000000003
 11
476.99999999999977
 21
323.40000000000003
  0
LINE
  8
_0-0__
  6
CONTINUOUS
 62
    7
 10
466.99999999999988
 20
384.40000000000003
 11
466.99999999999988
 21
323.40000000000003
  0
LINE
  8
_0-0__
  6
CONTINUOUS
 62
    7
 10
546.99999999999977
 20
384.40000000000003
 11
546.99999999999977
 21
323.40000000000003
  0
LINE
  8
_0-0__
  6
CONTINUOUS
 62
    7
 10
478.49999999999977
 20
371.40000000000003
 11
478.49999999999977
 21
337.90000000000003
  0
LINE
  8
_0-0__
  6
CONTINUOUS
 62
    7
 10
535.49999999999977
 20
371.40000000000003
 11
535.49999999999977
 21
337.90000000000003
  0
LINE
  8
_0-0__
  6
CONTINUOUS
 62
    7
 10
476.99999999999977
 20
337.90000000000003
 11
536.99999999999977
 21
337.90000000000003
  0
LINE
  8
_0-0__
  6
CONTINUOUS
 62
    7
 10
463.99999999999988
 20
336.40000000000003
 11
466.99999999999988
 21
336.40000000000003
  0
LINE
  8
_0-0__
  6
CONTINUOUS
 62
    7
 10
463.99999999999988
 20
326.40000000000003
 11
466.99999999999988
 21
326.40000000000003
  0
LINE
  8
_0-0__
  6
CONTINUOUS
 62
    7
 10
476.99999999999977
 20
336.40000000000003
 11
536.99999999999977
 21
336.40000000000003
  0
LINE
  8
_0-0__
  6
CONTINUOUS
 62
    7
 10
546.99999999999977
 20
336.40000000000003
 11
549.99999999999977
 21
336.40000000000003
  0
LINE
  8
_0-0__
  6
CONTINUOUS
 62
    7
 10
476.99999999999977
 20
326.40000000000003
 11
536.99999999999977
 21
326.40000000000003
  0
LINE
  8
_0-0__
  6
CONTINUOUS
 62
    7
 10
546.99999999999977
 20
326.40000000000003
 11
549.99999999999977
 21
326.40000000000003
  0
LINE
  8
_0-0__
  6
CONTINUOUS
 62
    7
 10
503.99999999999977
 20
334.80000000000006
 11
503.99999999999977
 21
328.79999999999995
  0
LINE
  8
_0-0__
  6
CONTINUOUS
 62
    7
 10
503.99999999999977
 20
328.79999999999995
 11
509.99999999999977
 21
328.79999999999995
  0
LINE
  8
_0-0__
  6
CONTINUOUS
 62
    7
 10
509.99999999999977
 20
334.80000000000006
 11
503.99999999999977
 21
334.80000000000006
  0
LINE
  8
_0-0__
  6
CONTINUOUS
 62
    7
 10
509.99999999999977
 20
328.79999999999995
 11
509.99999999999977
 21
334.80000000000006
  0
TEXT
  8
_0-0__
 62
    7
 10
504.99999999999977
 20
329.80000000000006
 40
4
 41
1
 50
0
  1
梁
  0
LINE
  8
_0-0__
  6
CONTINUOUS
 62
    7
 10
446.99999999999988
 20
313.90000000000003
 11
566.99999999999977
 21
313.90000000000003
  0
LINE
  8
_0-0__
  6
CONTINUOUS
 62
    7
 10
566.99999999999977
 20
313.90000000000003
 11
566.99999999999977
 21
393.90000000000003
  0
LINE
  8
_0-0__
  6
CONTINUOUS
 62
    7
 10
446.99999999999988
 20
393.90000000000003
 11
446.99999999999988
 21
313.90000000000003
  0
TEXT
  8
_0-0__
 62
    7
 10
469.99999999999977
 20
352.30000000000006
 40
4
 41
1
 50
0
  1
柱
  0
LINE
  8
_0-0__
  6
CONTINUOUS
 62
    7
 10
468.99999999999977
 20
357.30000000000006
 11
468.99999999999977
 21
351.29999999999995
  0
LINE
  8
_0-0__
  6
CONTINUOUS
 62
    7
 10
468.99999999999977
 20
351.29999999999995
 11
474.99999999999977
 21
351.29999999999995
  0
LINE
  8
_0-0__
  6
CONTINUOUS
 62
    7
 10
474.99999999999977
 20
357.30000000000006
 11
468.99999999999977
 21
357.30000000000006
  0
LINE
  8
_0-0__
  6
CONTINUOUS
 62
    7
 10
474.99999999999977
 20
351.29999999999995
 11
474.99999999999977
 21
357.30000000000006
  0
TEXT
  8
_0-0__
 62
    7
 10
539.99999999999977
 20
352.30000000000006
 40
4
 41
1
 50
0
  1
柱
  0
LINE
  8
_0-0__
  6
CONTINUOUS
 62
    7
 10
538.99999999999977
 20
357.30000000000006
 11
538.99999999999977
 21
351.29999999999995
  0
LINE
  8
_0-0__
  6
CONTINUOUS
 62
    7
 10
538.99999999999977
 20
351.29999999999995
 11
544.99999999999977
 21
351.29999999999995
  0
LINE
  8
_0-0__
  6
CONTINUOUS
 62
    7
 10
544.99999999999977
 20
357.30000000000006
 11
538.99999999999977
 21
357.30000000000006
  0
LINE
  8
_0-0__
  6
CONTINUOUS
 62
    7
 10
544.99999999999977
 20
351.29999999999995
 11
544.99999999999977
 21
357.30000000000006
  0
TEXT
  8
_0-0__
 62
    7
 10
504.99999999999977
 20
374.80000000000006
 40
4
 41
1
 50
0
  1
梁
  0
LINE
  8
_0-0__
  6
CONTINUOUS
 62
    7
 10
478.37662350913865
 20
337.90000000000071
 11
478.49999999999909
 21
338.02337649086121
  0
LINE
  8
_0-0__
  6
CONTINUOUS
 62
    7
 10
477.52809537171515
 20
337.90000000000048
 11
478.49999999999954
 21
338.87190462828482
  0
LINE
  8
_0-0__
  6
CONTINUOUS
 62
    7
 10
477
 20
338.22043276571218
 11
478.5
 21
339.7204327657123
  0
LINE
  8
_0-0__
  6
CONTINUOUS
 62
    7
 10
476.99999999999931
 20
339.06896090313472
 11
478.49999999999931
 21
340.56896090313477
  0
LINE
  8
_0-0__
  6
CONTINUOUS
 62
    7
 10
476.99999999999954
 20
339.91748904055828
 11
478.49999999999954
 21
341.41748904055839
  0
LINE
  8
_0-0__
  6
CONTINUOUS
 62
    7
 10
476.99999999999977
 20
340.76601717798183
 11
478.49999999999886
 21
342.26601717798092
  0
LINE
  8
_0-0__
  6
CONTINUOUS
 62
    7
 10
476.99999999999909
 20
341.61454531540437
 11
478.49999999999909
 21
343.11454531540448
  0
LINE
  8
_0-0__
  6
CONTINUOUS
 62
    7
 10
476.99999999999931
 20
342.46307345282792
 11
478.49999999999954
 21
343.96307345282809
  0
LINE
  8
_0-0__
  6
CONTINUOUS
 62
    7
 10
476.99999999999977
 20
343.31160159025523
 11
478.49999999999977
 21
344.81160159025534
  0
LINE
  8
_0-0__
  6
CONTINUOUS
 62
    7
 10
476.99999999999909
 20
344.16012972767794
 11
478.49999999999931
 21
345.66012972767805
  0
LINE
  8
_0-0__
  6
CONTINUOUS
 62
    7
 10
476.99999999999954
 20
345.00865786510155
 11
478.49999999999954
 21
346.50865786510161
  0
LINE
  8
_0-0__
  6
CONTINUOUS
 62
    7
 10
476.99999999999977
 20
345.85718600252511
 11
478.49999999999886
 21
347.35718600252414
  0
LINE
  8
_0-0__
  6
CONTINUOUS
 62
    7
 10
476.99999999999886
 20
346.70571413994758
 11
478.49999999999909
 21
348.20571413994775
  0
LINE
  8
_0-0__
  6
CONTINUOUS
 62
    7
 10
476.99999999999931
 20
347.55424227737114
 11
478.49999999999931
 21
349.05424227737131
  0
LINE
  8
_0-0__
  6
CONTINUOUS
 62
    7
 10
476.99999999999954
 20
348.40277041479475
 11
478.49999999999977
 21
349.90277041479487
  0
LINE
  8
_0-0__
  6
CONTINUOUS
 62
    7
 10
476.99999999999977
 20
349.25129855222184
 11
478.49999999999977
 21
350.75129855222195
  0
LINE
  8
_0-0__
  6
CONTINUOUS
 62
    7
 10
476.99999999999931
 20
350.09982668964471
 11
478.49999999999954
 21
351.59982668964488
  0
LINE
  8
_0-0__
  6
CONTINUOUS
 62
    7
 10
476.99999999999977
 20
350.94835482706832
 11
478.49999999999977
 21
352.44835482706844
  0
LINE
  8
_0-0__
  6
CONTINUOUS
 62
    7
 10
476.99999999999886
 20
351.7968829644908
 11
478.49999999999909
 21
353.29688296449091
  0
LINE
  8
_0-0__
  6
CONTINUOUS
 62
    7
 10
476.99999999999931
 20
352.64541110191441
 11
478.49999999999931
 21
354.14541110191453
  0
LINE
  8
_0-0__
  6
CONTINUOUS
 62
    7
 10
476.99999999999954
 20
353.49393923933797
 11
478.49999999999977
 21
354.99393923933808
  0
LINE
  8
_0-0__
  6
CONTINUOUS
 62
    7
 10
476.99999999999954
 20
354.34246737676494
 11
478.49999999999977
 21
355.842467376765
  0
LINE
  8
_0-0__
  6
CONTINUOUS
 62
    7
 10
476.99999999999931
 20
355.19099551418798
 11
478.49999999999954
 21
356.6909955141881
  0
LINE
  8
_0-0__
  6
CONTINUOUS
 62
    7
 10
476.99999999999977
 20
356.03952365161154
 11
478.49999999999977
 21
357.53952365161165
  0
LINE
  8
_0-0__
  6
CONTINUOUS
 62
    7
 10
477
 20
356.8880517890351
 11
478.49999999999909
 21
358.38805178903419
  0
LINE
  8
_0-0__
  6
CONTINUOUS
 62
    7
 10
476.99999999999931
 20
357.73657992645763
 11
478.49999999999931
 21
359.23657992645775
  0
LINE
  8
_0-0__
  6
CONTINUOUS
 62
    7
 10
476.99999999999954
 20
358.58510806388119
 11
478.49999999999954
 21
360.0851080638813
  0
LINE
  8
_0-0__
  6
CONTINUOUS
 62
    7
 10
476.99999999999931
 20
359.43363620130799
 11
478.49999999999954
 21
360.9336362013081
  0
LINE
  8
_0-0__
  6
CONTINUOUS
 62
    7
 10
476.99999999999931
 20
360.2821643387312
 11
478.49999999999931
 21
361.78216433873132
  0
LINE
  8
_0-0__
  6
CONTINUOUS
 62
    7
 10
476.99999999999954
 20
361.13069247615476
 11
478.49999999999977
 21
362.63069247615487
  0
LINE
  8
_0-0__
  6
CONTINUOUS
 62
    7
 10
477
 20
361.97922061357837
 11
478.49999999999886
 21
363.47922061357741
  0
LINE
  8
_0-0__
  6
CONTINUOUS
 62
    7
 10
476.99999999999909
 20
362.82774875100085
 11
478.49999999999931
 21
364.32774875100096
  0
LINE
  8
_0-0__
  6
CONTINUOUS
 62
    7
 10
476.99999999999954
 20
363.67627688842446
 11
478.49999999999954
 21
365.17627688842452
  0
LINE
  8
_0-0__
  6
CONTINUOUS
 62
    7
 10
476.99999999999909
 20
364.5248050258491
 11
478.49999999999909
 21
366.02480502584921
  0
LINE
  8
_0-0__
  6
CONTINUOUS
 62
    7
 10
476.99999999999931
 20
365.37333316327442
 11
478.49999999999931
 21
366.87333316327453
  0
LINE
  8
_0-0__
  6
CONTINUOUS
 62
    7
 10
476.99999999999954
 20
366.22186130069803
 11
478.49999999999977
 21
367.72186130069815
  0
LINE
  8
_0-0__
  6
CONTINUOUS
 62
    7
 10
476.99999999999977
 20
367.07038943812159
 11
478.49999999999886
 21
368.57038943812062
  0
LINE
  8
_0-0__
  6
CONTINUOUS
 62
    7
 10
476.99999999999909
 20
367.91891757554407
 11
478.49999999999931
 21
369.41891757554424
  0
LINE
  8
_0-0__
  6
CONTINUOUS
 62
    7
 10
476.99999999999931
 20
368.76744571296762
 11
478.49999999999954
 21
370.26744571296779
  0
LINE
  8
_0-0__
  6
CONTINUOUS
 62
    7
 10
476.99999999999977
 20
369.61597385039124
 11
478.49999999999977
 21
371.11597385039135
  0
LINE
  8
_0-0__
  6
CONTINUOUS
 62
    7
 10
476.99999999999931
 20
370.46450198781764
 11
477.93549801218205
 21
371.40000000000054
  0
LINE
  8
_0-0__
  6
CONTINUOUS
 62
    7
 10
476.99999999999954
 20
371.31303012524119
 11
477.08696987475855
 21
371.40000000000037
  0
LINE
  8
_0-0__
  6
CONTINUOUS
 62
    7
 10
536.92506499138403
 20
337.90000000000043
 11
536.99999999999954
 21
337.97493500861571
  0
LINE
  8
_0-0__
  6
CONTINUOUS
 62
    7
 10
536.07653685396076
 20
337.9000000000002
 11
536.99999999999977
 21
338.82346314603927
  0
LINE
  8
_0-0__
  6
CONTINUOUS
 62
    7
 10
535.50000000000022
 20
338.17199128346663
 11
537.00000000000022
 21
339.6719912834668
  0
LINE
  8
_0-0__
  6
CONTINUOUS
 62
    7
 10
535.49999999999931
 20
339.02051942088917
 11
536.99999999999954
 21
340.52051942088917
  0
LINE
  8
_0-0__
  6
CONTINUOUS
 62
    7
 10
535.49999999999863
 20
339.86904755831164
 11
536.99999999999886
 21
341.36904755831182
  0
LINE
  8
_0-0__
  6
CONTINUOUS
 62
    7
 10
535.49999999999909
 20
340.71757569573526
 11
536.99999999999909
 21
342.21757569573537
  0
LINE
  8
_0-0__
  6
CONTINUOUS
 62
    7
 10
535.49999999999931
 20
341.56610383315887
 11
536.99999999999931
 21
343.06610383315899
  0
LINE
  8
_0-0__
  6
CONTINUOUS
 62
    7
 10
535.49999999999954
 20
342.41463197058237
 11
536.99999999999977
 21
343.91463197058249
  0
LINE
  8
_0-0__
  6
CONTINUOUS
 62
    7
 10
535.49999999999977
 20
343.26316010800599
 11
537
 21
344.7631601080061
  0
LINE
  8
_0-0__
  6
CONTINUOUS
 62
    7
 10
535.50000000000022
 20
344.11168824543324
 11
536.99999999999931
 21
345.61168824543233
  0
LINE
  8
_0-0__
  6
CONTINUOUS
 62
    7
 10
535.49999999999863
 20
344.96021638285492
 11
536.99999999999886
 21
346.46021638285503
  0
LINE
  8
_0-0__
  6
CONTINUOUS
 62
    7
 10
535.49999999999886
 20
345.80874452027848
 11
536.99999999999909
 21
347.30874452027865
  0
LINE
  8
_0-0__
  6
CONTINUOUS
 62
    7
 10
535.49999999999931
 20
346.65727265770203
 11
536.99999999999931
 21
348.15727265770215
  0
LINE
  8
_0-0__
  6
CONTINUOUS
 62
    7
 10
535.49999999999954
 20
347.50580079512559
 11
536.99999999999977
 21
349.00580079512576
  0
LINE
  8
_0-0__
  6
CONTINUOUS
 62
    7
 10
535.49999999999977
 20
348.3543289325492
 11
537
 21
349.85432893254932
  0
LINE
  8
_0-0__
  6
CONTINUOUS
 62
    7
 10
535.50000000000022
 20
349.20285706997628
 11
536.99999999999909
 21
350.70285706997537
  0
LINE
  8
_0-0__
  6
CONTINUOUS
 62
    7
 10
535.49999999999863
 20
350.05138520739808
 11
536.99999999999886
 21
351.55138520739831
  0
LINE
  8
_0-0__
  6
CONTINUOUS
 62
    7
 10
535.49999999999886
 20
350.89991334482169
 11
536.99999999999909
 21
352.39991334482181
  0
LINE
  8
_0-0__
  6
CONTINUOUS
 62
    7
 10
535.49999999999931
 20
351.74844148224531
 11
536.99999999999931
 21
353.24844148224542
  0
LINE
  8
_0-0__
  6
CONTINUOUS
 62
    7
 10
535.49999999999954
 20
352.59696961966881
 11
536.99999999999954
 21
354.09696961966892
  0
LINE
  8
_0-0__
  6
CONTINUOUS
 62
    7
 10
535.49999999999977
 20
353.44549775709242
 11
537
 21
354.94549775709253
  0
LINE
  8
_0-0__
  6
CONTINUOUS
 62
    7
 10
535.49999999999977
 20
354.29402589451939
 11
536.99999999999886
 21
355.79402589451842
  0
LINE
  8
_0-0__
  6
CONTINUOUS
 62
    7
 10
535.49999999999863
 20
355.14255403194135
 11
536.99999999999863
 21
356.64255403194147
  0
LINE
  8
_0-0__
  6
CONTINUOUS
 62
    7
 10
535.49999999999886
 20
355.99108216936491
 11
536.99999999999886
 21
357.49108216936508
  0
LINE
  8
_0-0__
  6
CONTINUOUS
 62
    7
 10
535.49999999999909
 20
356.83961030678847
 11
536.99999999999931
 21
358.33961030678864
  0
LINE
  8
_0-0__
  6
CONTINUOUS
 62
    7
 10
535.49999999999954
 20
357.68813844421208
 11
536.99999999999954
 21
359.18813844421219
  0
LINE
  8
_0-0__
  6
CONTINUOUS
 62
    7
 10
535.49999999999977
 20
358.53666658163564
 11
536.99999999999977
 21
360.03666658163575
  0
LINE
  8
_0-0__
  6
CONTINUOUS
 62
    7
 10
535.49999999999977
 20
359.38519471906249
 11
536.99999999999977
 21
360.88519471906249
  0
LINE
  8
_0-0__
  6
CONTINUOUS
 62
    7
 10
535.4999999999984
 20
360.23372285648463
 11
536.99999999999863
 21
361.73372285648474
  0
LINE
  8
_0-0__
  6
CONTINUOUS
 62
    7
 10
535.49999999999886
 20
361.08225099390813
 11
536.99999999999886
 21
362.58225099390824
  0
LINE
  8
_0-0__
  6
CONTINUOUS
 62
    7
 10
535.49999999999909
 20
361.93077913133174
 11
536.99999999999931
 21
363.43077913133186
  0
LINE
  8
_0-0__
  6
CONTINUOUS
 62
    7
 10
535.49999999999931
 20
362.7793072687553
 11
536.99999999999954
 21
364.27930726875547
  0
LINE
  8
_0-0__
  6
CONTINUOUS
 62
    7
 10
535.49999999999977
 20
363.62783540617886
 11
536.99999999999977
 21
365.12783540617897
  0
LINE
  8
_0-0__
  6
CONTINUOUS
 62
    7
 10
535.50000000000022
 20
364.47636354360633
 11
537.00000000000045
 21
365.97636354360651
  0
LINE
  8
_0-0__
  6
CONTINUOUS
 62
    7
 10
535.49999999999977
 20
365.32489168102904
 11
536.99999999999886
 21
366.82489168102807
  0
LINE
  8
_0-0__
  6
CONTINUOUS
 62
    7
 10
535.49999999999886
 20
366.1734198184514
 11
536.99999999999886
 21
367.67341981845152
  0
LINE
  8
_0-0__
  6
CONTINUOUS
 62
    7
 10
535.49999999999909
 20
367.02194795587496
 11
536.99999999999931
 21
368.52194795587507
  0
LINE
  8
_0-0__
  6
CONTINUOUS
 62
    7
 10
535.49999999999931
 20
367.87047609329852
 11
536.99999999999954
 21
369.37047609329863
  0
LINE
  8
_0-0__
  6
CONTINUOUS
 62
    7
 10
535.49999999999977
 20
368.71900423072213
 11
536.99999999999977
 21
370.21900423072224
  0
LINE
  8
_0-0__
  6
CONTINUOUS
 62
    7
 10
535.5
 20
369.56753236814563
 11
537.00000000000022
 21
371.0675323681458
  0
LINE
  8
_0-0__
  6
CONTINUOUS
 62
    7
 10
535.49999999999954
 20
370.41606050557214
 11
536.48393949442834
 21
371.400000000001
  0
LINE
  8
_0-0__
  6
CONTINUOUS
 62
    7
 10
535.49999999999886
 20
371.26458864299468
 11
535.63541135700529
 21
371.40000000000111
  0
SOLID
  8
_0-0__
  6
CONTINUOUS
 62
    1
 10
536.99999999999977
 20
336.40000000000003
 11
536.99999999999977
 21
337.90000000000003
 12
476.99999999999977
 22
336.40000000000003
 13
476.99999999999977
 23
337.90000000000003
  0
LINE
  8
_0-0__
  6
CONTINUOUS
 62
    7
 10
508.73205080756883
 20
341.90000000000003
 11
505.26794919243093
 21
341.90000000000003
  0
LINE
  8
_0-0__
  6
CONTINUOUS
 62
    7
 10
505.26794919243093
 20
341.90000000000003
 11
506.99999999999977
 21
338.90000000000003
  0
LINE
  8
_0-0__
  6
CONTINUOUS
 62
    7
 10
506.99999999999977
 20
338.90000000000003
 11
508.73205080756883
 21
341.90000000000003
  0
TEXT
  8
_0-0__
 62
    7
 10
494.99999999999977
 20
342.90000000000003
 40
4
 41
1
 50
0
  1
水平スリット
  0
SOLID
  8
_0-0__
  6
CONTINUOUS
 62
    1
 10
506.99999999999977
 20
338.90000000000003
 11
508.73205080756883
 21
341.90000000000003
 12
506.99999999999977
 22
338.90000000000003
 13
505.26794919243093
 23
341.90000000000003
  0
LINE
  8
_0-0__
  6
CONTINUOUS
 62
    7
 10
479.49999999999977
 20
359.65000000000003
 11
481.74999999999977
 21
358.35096189432334
  0
LINE
  8
_0-0__
  6
CONTINUOUS
 62
    7
 10
481.74999999999977
 20
360.94903810567672
 11
479.49999999999977
 21
359.65000000000003
  0
LINE
  8
_0-0__
  6
CONTINUOUS
 62
    7
 10
481.74999999999977
 20
358.35096189432334
 11
481.74999999999977
 21
360.94903810567672
  0
TEXT
  8
_0-0__
 62
    7
 10
482.49999999999977
 20
358.15000000000003
 40
3
 41
1
 50
0
  1
鉛直スリット
  0
SOLID
  8
_0-0__
  6
CONTINUOUS
 62
  178
 10
479.49999999999977
 20
359.65000000000003
 11
481.74999999999977
 21
358.35096189432334
 12
479.49999999999977
 22
359.65000000000003
 13
481.74999999999977
 23
360.94903810567672
  0
LINE
  8
_0-0__
  6
CONTINUOUS
 62
    7
 10
534.49999999999977
 20
359.65000000000003
 11
532.24999999999977
 21
358.35096189432334
  0
LINE
  8
_0-0__
  6
CONTINUOUS
 62
    7
 10
532.24999999999977
 20
360.94903810567672
 11
534.49999999999977
 21
359.65000000000003
  0
LINE
  8
_0-0__
  6
CONTINUOUS
 62
    7
 10
532.24999999999977
 20
358.35096189432334
 11
532.24999999999977
 21
360.94903810567672
  0
TEXT
  8
_0-0__
 62
    7
 10
513.49999999999977
 20
358.15000000000003
 40
3
 41
1
 50
0
  1
鉛直スリット
  0
SOLID
  8
_0-0__
  6
CONTINUOUS
 62
  178
 10
534.49999999999977
 20
359.65000000000003
 11
532.24999999999977
 21
358.35096189432334
 12
534.49999999999977
 22
359.65000000000003
 13
532.24999999999977
 23
360.94903810567672
  0
LINE
  8
_0-0__
  6
CONTINUOUS
 62
    7
 10
26.999999999999886
 20
393.89999999999997
 11
26.999999999999886
 21
373.89999999999997
  0
LINE
  8
_0-0__
  6
CONTINUOUS
 62
    7
 10
146.99999999999988
 20
393.89999999999997
 11
26.999999999999886
 21
393.89999999999997
  0
LINE
  8
_0-0__
  6
CONTINUOUS
 62
    7
 10
146.99999999999988
 20
373.89999999999997
 11
146.99999999999988
 21
393.89999999999997
  0
LINE
  8
_0-0__
  6
CONTINUOUS
 62
    7
 10
26.999999999999886
 20
373.89999999999997
 11
146.99999999999988
 21
373.89999999999997
  0
TEXT
  8
_0-0__
 62
    2
 10
404.65000000000009
 20
17.889999999999986
 40
4.4000000000000003
 41
1
 50
0
  1
ＦＰ－２５Ｒ(Ｂ)
  0
TEXT
  8
_0-0__
 62
    7
 10
30.999999999999886
 20
376.89999999999997
 40
14
 41
1
 50
0
  1
ＦＰ－２５Ｒ(Ｂ)
  0
LINE
  8
_0-0__
  6
CONTINUOUS
 62
    5
 10
330.99999999999982
 20
157.00000000000022
 11
330.99999999999982
 21
134.89999999999986
  0
LINE
  8
_0-0__
  6
CONTINUOUS
 62
    5
 10
327.99999999999982
 20
157.00000000000022
 11
327.99999999999982
 21
136.39999999999986
  0
LINE
  8
_0-0__
  6
CONTINUOUS
 62
    5
 10
303.99999999999982
 20
157.00000000000022
 11
303.99999999999982
 21
136.39999999999986
  0
LINE
  8
_0-0__
  6
CONTINUOUS
 62
    5
 10
306.99999999999982
 20
157.00000000000022
 11
306.99999999999982
 21
136.39999999999986
  0
LINE
  8
_0-0__
  6
CONTINUOUS
 62
    5
 10
309.99999999999982
 20
157.00000000000022
 11
309.99999999999982
 21
136.39999999999986
  0
LINE
  8
_0-0__
  6
CONTINUOUS
 62
    5
 10
312.99999999999982
 20
157.00000000000022
 11
312.99999999999982
 21
136.39999999999986
  0
LINE
  8
_0-0__
  6
CONTINUOUS
 62
    5
 10
315.99999999999982
 20
157.00000000000022
 11
315.99999999999982
 21
136.39999999999986
  0
LINE
  8
_0-0__
  6
CONTINUOUS
 62
    5
 10
318.99999999999982
 20
157.00000000000022
 11
318.99999999999982
 21
136.39999999999986
  0
LINE
  8
_0-0__
  6
CONTINUOUS
 62
    5
 10
321.99999999999982
 20
157.00000000000022
 11
321.99999999999982
 21
136.39999999999986
  0
LINE
  8
_0-0__
  6
CONTINUOUS
 62
    5
 10
324.99999999999982
 20
157.00000000000022
 11
324.99999999999982
 21
136.39999999999986
  0
LINE
  8
_0-0__
  6
CONTINUOUS
 62
    5
 10
297.99999999999982
 20
157.00000000000022
 11
297.99999999999982
 21
136.39999999999986
  0
LINE
  8
_0-0__
  6
CONTINUOUS
 62
    5
 10
300.99999999999982
 20
157.00000000000022
 11
300.99999999999982
 21
136.39999999999986
  0
LINE
  8
_0-0__
  6
CONTINUOUS
 62
    5
 10
291.99999999999982
 20
157.00000000000022
 11
291.99999999999982
 21
136.39999999999986
  0
LINE
  8
_0-0__
  6
CONTINUOUS
 62
    5
 10
294.99999999999982
 20
157.00000000000022
 11
294.99999999999982
 21
136.39999999999986
  0
LINE
  8
_0-0__
  6
CONTINUOUS
 62
    5
 10
288.99999999999982
 20
157.00000000000022
 11
288.99999999999982
 21
136.39999999999986
  0
LINE
  8
_0-0__
  6
CONTINUOUS
 62
    5
 10
285.99999999999982
 20
157.00000000000022
 11
285.99999999999982
 21
136.39999999999986
  0
ARC
  8
_0-0__
  6
CONTINUOUS
 62
    5
 10
329.49999999999982
 20
157.00000000000022
 40
1.5
 50
0
 51
180
  0
ARC
  8
_0-0__
  6
CONTINUOUS
 62
    5
 10
323.49999999999982
 20
157.00000000000022
 40
1.5
 50
0
 51
180
  0
ARC
  8
_0-0__
  6
CONTINUOUS
 62
    5
 10
317.49999999999982
 20
157.00000000000022
 40
1.5
 50
0
 51
180
  0
ARC
  8
_0-0__
  6
CONTINUOUS
 62
    5
 10
311.49999999999982
 20
157.00000000000022
 40
1.5
 50
0
 51
180
  0
ARC
  8
_0-0__
  6
CONTINUOUS
 62
    5
 10
305.49999999999982
 20
157.00000000000022
 40
1.5
 50
0
 51
180
  0
ARC
  8
_0-0__
  6
CONTINUOUS
 62
    5
 10
299.49999999999982
 20
157.00000000000022
 40
1.5
 50
0
 51
180
  0
ARC
  8
_0-0__
  6
CONTINUOUS
 62
    5
 10
293.49999999999982
 20
157.00000000000022
 40
1.5
 50
0
 51
180
  0
ARC
  8
_0-0__
  6
CONTINUOUS
 62
    5
 10
287.49999999999982
 20
157.00000000000022
 40
1.5
 50
0
 51
180
  0
ARC
  8
_0-0__
  6
CONTINUOUS
 62
    5
 10
326.49999999999982
 20
136.39999999999986
 40
1.5
 50
180
 51
0
  0
ARC
  8
_0-0__
  6
CONTINUOUS
 62
    5
 10
320.49999999999982
 20
136.39999999999986
 40
1.5
 50
180
 51
0
  0
ARC
  8
_0-0__
  6
CONTINUOUS
 62
    5
 10
314.49999999999982
 20
136.39999999999986
 40
1.5
 50
180
 51
0
  0
ARC
  8
_0-0__
  6
CONTINUOUS
 62
    5
 10
308.49999999999982
 20
136.39999999999986
 40
1.5
 50
180
 51
0
  0
ARC
  8
_0-0__
  6
CONTINUOUS
 62
    5
 10
302.49999999999982
 20
136.39999999999986
 40
1.5
 50
180
 51
0
  0
ARC
  8
_0-0__
  6
CONTINUOUS
 62
    5
 10
296.49999999999982
 20
136.39999999999986
 40
1.5
 50
180
 51
0
  0
ARC
  8
_0-0__
  6
CONTINUOUS
 62
    5
 10
290.49999999999982
 20
136.39999999999986
 40
1.5
 50
180
 51
0
  0
ARC
  8
_0-0__
  6
CONTINUOUS
 62
    5
 10
284.49999999999982
 20
136.39999999999986
 40
1.5
 50
180
 51
0
  0
LINE
  8
_0-0__
  6
CONTINUOUS
 62
    5
 10
282.99999999999982
 20
158.50000000000022
 11
282.99999999999982
 21
136.39999999999986
  0
LINE
  8
_0-0__
  6
CONTINUOUS
 62
   18
 10
282.19999999999987
 20
159.00000000000011
 11
331.79999999999978
 21
159.00000000000011
  0
LINE
  8
_0-0__
  6
CONTINUOUS
 62
   18
 10
331.79999999999978
 20
159.00000000000011
 11
331.79999999999978
 21
134.39999999999997
  0
LINE
  8
_0-0__
  6
CONTINUOUS
 62
   18
 10
282.19999999999987
 20
134.39999999999997
 11
331.79999999999978
 21
134.39999999999997
  0
LINE
  8
_0-0__
  6
CONTINUOUS
 62
   18
 10
282.19999999999987
 20
159.00000000000011
 11
282.19999999999987
 21
134.39999999999997
  0
LINE
  8
_0-0__
  6
CONTINUOUS
 62
   18
 10
331.99999999999982
 20
159.2000000000001
 11
331.99999999999982
 21
134.19999999999998
  0
LINE
  8
_0-0__
  6
CONTINUOUS
 62
   18
 10
281.99999999999982
 20
159.2000000000001
 11
281.99999999999982
 21
134.19999999999998
  0
LINE
  8
_0-0__
  6
CONTINUOUS
 62
    7
 10
175.27350269189582
 20
128.21923788646702
 11
194.49999999999977
 21
128.21923788646702
  0
LINE
  8
_0-0__
  6
CONTINUOUS
 62
    7
 10
194.49999999999977
 20
144.20000000000018
 11
194.49999999999977
 21
128.21923788646702
  0
LINE
  8
_0-0__
  6
CONTINUOUS
 62
    7
 10
175.27350269189582
 20
119.55898384862263
 11
204.49999999999977
 21
119.55898384862263
  0
LINE
  8
_0-0__
  6
CONTINUOUS
 62
    7
 10
204.49999999999977
 20
144.20000000000018
 11
204.49999999999977
 21
119.55898384862263
  0
POINT
  8
_0-0__
 62
   18
 10
351.99999999999982
 20
144.2000000000001
  0
LINE
  8
_0-0__
  6
CONTINUOUS
 62
    7
 10
351.99999999999982
 20
144.2000000000001
 11
351.99999999999982
 21
124.20000000000004
  0
POINT
  8
_0-0__
 62
   18
 10
261.99999999999982
 20
144.2000000000001
  0
LINE
  8
_0-0__
  6
CONTINUOUS
 62
    7
 10
261.99999999999982
 20
144.2000000000001
 11
261.99999999999982
 21
124.20000000000004
  0
LINE
  8
_0-0__
  6
CONTINUOUS
 62
    7
 10
261.99999999999982
 20
124.20000000000004
 11
351.99999999999982
 21
124.20000000000004
  0
LINE
  8
_0-0__
  6
CONTINUOUS
 62
    7
 10
306.99999999999982
 20
124.20000000000004
 11
306.99999999999982
 21
119.20000000000007
  0
TEXT
  8
_0-0__
 62
    7
 10
274.49999999999982
 20
113.20000000000007
 40
5
 41
1
 50
0
  1
ポリエチレン独立気泡発泡体
  0
LINE
  8
_0-0__
  6
CONTINUOUS
 62
    5
 10
221.99999999999977
 20
88.19999999999996
 11
267.99999999999965
 21
134.19999999999998
  0
LINE
  8
_0-0__
  6
CONTINUOUS
 62
    5
 10
221.99999999999977
 20
85.199999999999704
 11
270.99999999999977
 21
134.19999999999998
  0
LINE
  8
_0-0__
  6
CONTINUOUS
 62
    5
 10
221.99999999999977
 20
82.199999999999704
 11
273.99999999999977
 21
134.19999999999998
  0
POINT
  8
_0-0__
 62
   18
 10
305.49999999999982
 20
149.19999999999998
  0
LINE
  8
_0-0__
  6
CONTINUOUS
 62
    7
 10
305.49999999999994
 20
169.2000000000001
 11
315.49999999999994
 21
169.2000000000001
  0
TEXT
  8
_0-0__
 62
    7
 10
316.49999999999994
 20
166.7000000000001
 40
5
 41
1
 50
0
  1
ロックウール
  0
LINE
  8
_0-0__
  6
CONTINUOUS
 62
    7
 10
305.49999999999982
 20
149.19999999999998
 11
305.49999999999982
 21
169.20000000000015
  0
TEXT
  8
_0-0__
 62
    7
 10
294.49999999999988
 20
274.7000000000001
 40
5
 41
1
 50
0
  1
壁
  0
LINE
  8
_0-0__
  6
CONTINUOUS
 62
    7
 10
291.99999999999977
 20
282.20000000000015
 11
291.99999999999977
 21
272.20000000000004
  0
LINE
  8
_0-0__
  6
CONTINUOUS
 62
    7
 10
301.99999999999988
 20
282.20000000000015
 11
291.99999999999977
 21
282.20000000000015
  0
LINE
  8
_0-0__
  6
CONTINUOUS
 62
    7
 10
301.99999999999988
 20
272.20000000000004
 11
301.99999999999988
 21
282.20000000000015
  0
LINE
  8
_0-0__
  6
CONTINUOUS
 62
    7
 10
291.99999999999977
 20
272.20000000000004
 11
301.99999999999988
 21
272.20000000000004
  0
TEXT
  8
_0-0__
 62
    7
 10
294.49999999999977
 20
81.699999999999988
 40
5
 41
1
 50
0
  1
梁
  0
LINE
  8
_0-0__
  6
CONTINUOUS
 62
    7
 10
291.99999999999977
 20
89.200000000000045
 11
291.99999999999977
 21
79.199999999999931
  0
LINE
  8
_0-0__
  6
CONTINUOUS
 62
    7
 10
301.99999999999988
 20
89.200000000000045
 11
291.99999999999977
 21
89.200000000000045
  0
LINE
  8
_0-0__
  6
CONTINUOUS
 62
    7
 10
301.99999999999988
 20
79.199999999999931
 11
301.99999999999988
 21
89.200000000000045
  0
LINE
  8
_0-0__
  6
CONTINUOUS
 62
    7
 10
291.99999999999977
 20
79.199999999999931
 11
301.99999999999988
 21
79.199999999999931
  0
LINE
  8
_1-0__
  6
CONTINUOUS
 62
    7
 10
418.99999999999988
 20
159.2000000000001
 11
418.99999999999988
 21
134.19999999999998
  0
TEXT
  8
_0-0__
 62
    7
 10
418.79999999999984
 20
144.20000000000004
 40
5
 41
1
 50
90
  1
25
  0
LINE
  8
_0-0__
  6
CONTINUOUS
 62
    7
 10
418.99999999999988
 20
134.19999999999998
 11
411.99999999999988
 21
134.19999999999998
  0
LINE
  8
_0-0__
  6
CONTINUOUS
 62
    7
 10
418.99999999999988
 20
159.2000000000001
 11
411.99999999999988
 21
159.2000000000001
  0
POINT
  8
_0-0__
 62
    7
 10
418.99999999999988
 20
134.19999999999998
  0
POINT
  8
_0-0__
 62
    7
 10
418.99999999999988
 20
159.2000000000001
  0
LINE
  8
_1-0__
  6
CONTINUOUS
 62
    7
 10
174.99999999999977
 20
134.19999999999998
 11
174.99999999999977
 21
159.1999999999999
  0
TEXT
  8
_0-0__
 62
    7
 10
174.79999999999972
 20
144.19999999999993
 40
5
 41
1
 50
90
  1
25
  0
LINE
  8
_0-0__
  6
CONTINUOUS
 62
    7
 10
174.99999999999977
 20
159.1999999999999
 11
181.99999999999977
 21
159.1999999999999
  0
LINE
  8
_0-0__
  6
CONTINUOUS
 62
    7
 10
174.99999999999977
 20
134.19999999999998
 11
181.99999999999977
 21
134.19999999999998
  0
POINT
  8
_0-0__
 62
    7
 10
174.99999999999977
 20
159.1999999999999
  0
POINT
  8
_0-0__
 62
    7
 10
174.99999999999977
 20
134.19999999999998
  0
POINT
  8
_0-0__
 62
    7
 10
186.99999999999977
 20
206.19999999999998
  0
POINT
  8
_0-0__
 62
    7
 10
406.99999999999988
 20
206.19999999999998
  0
LINE
  8
_0-0__
  6
CONTINUOUS
 62
    7
 10
406.99999999999988
 20
206.19999999999998
 11
206.99999999999977
 21
206.19999999999998
  0
POINT
  8
_0-0__
 62
    7
 10
206.99999999999977
 20
206.19999999999998
  0
LINE
  8
_0-0__
  6
CONTINUOUS
 62
    7
 10
206.99999999999977
 20
206.19999999999998
 11
186.99999999999977
 21
206.19999999999998
  0
LINE
  8
_0-0__
  6
CONTINUOUS
 62
    7
 10
186.99999999999977
 20
206.19999999999998
 11
186.99999999999977
 21
199.19999999999998
  0
LINE
  8
_0-0__
  6
CONTINUOUS
 62
    7
 10
406.99999999999988
 20
206.19999999999998
 11
406.99999999999988
 21
199.19999999999998
  0
LINE
  8
_0-0__
  6
CONTINUOUS
 62
    7
 10
206.99999999999977
 20
206.19999999999998
 11
206.99999999999977
 21
199.19999999999998
  0
TEXT
  8
_0-0__
 62
    7
 10
186.99999999999977
 20
206.39999999999997
 40
5
 41
1
 50
0
  1
目地深さ
  0
TEXT
  8
_0-0__
 62
    7
 10
296.99999999999982
 20
206.39999999999997
 40
5
 41
1
 50
0
  1
製品寸法
  0
TEXT
  8
_0-0__
 62
    7
 10
256.80849887332408
 20
23.160000000000025
 40
3.6
 41
1
 50
0
  1
https://www.axis-slit.com/pailon/
  0
TEXT
  8
_0-0__
 62
    7
 10
161
 20
77.69999999999996
 40
5
 41
1
 50
0
  1
シーラント(Ｐ-１０１Ａ)
  0
TEXT
  8
_0-0__
 62
    7
 10
161
 20
83.699999999999903
 40
5
 41
1
 50
0
  1
水膨張性一液弾性
  0
TEXT
  8
_0-0__
 62
    7
 10
161
 20
71.69999999999996
 40
5
 41
1
 50
0
  1
※現場にて塗布
  0
ENDSEC
  0
EOF
